  0
SECTION
  2
HEADER
  9
$ACADVER
  1
AC1009
  9
$DWGCODEPAGE
  3
dos932
  9
$INSBASE
 10
0.0
 20
0.0
 30
0.0
  9
$EXTMIN
 10
800.7212920651436
 20
-145.5409391607053
 30
0.0
  9
$EXTMAX
 10
3005.885792065144
 20
1413.765060839294
 30
0.0
  9
$LIMMIN
 10
0.0
 20
0.0
  9
$LIMMAX
 10
12.0
 20
9.0
  9
$ORTHOMODE
 70
     0
  9
$REGENMODE
 70
     1
  9
$FILLMODE
 70
     1
  9
$QTEXTMODE
 70
     0
  9
$MIRRTEXT
 70
     1
  9
$DRAGMODE
 70
     2
  9
$LTSCALE
 40
5.0
  9
$OSMODE
 70
    37
  9
$ATTMODE
 70
     1
  9
$TEXTSIZE
 40
0.2
  9
$TRACEWID
 40
1.0
  9
$TEXTSTYLE
  7
STANDARD
  9
$CLAYER
  8
__-1
  9
$CELTYPE
  6
BYLAYER
  9
$CECOLOR
 62
   256
  9
$DIMSCALE
 40
1.0
  9
$DIMASZ
 40
0.18
  9
$DIMEXO
 40
0.0625
  9
$DIMDLI
 40
0.38
  9
$DIMRND
 40
0.0
  9
$DIMDLE
 40
0.0
  9
$DIMEXE
 40
0.18
  9
$DIMTP
 40
0.0
  9
$DIMTM
 40
0.0
  9
$DIMTXT
 40
0.18
  9
$DIMCEN
 40
0.09
  9
$DIMTSZ
 40
0.0
  9
$DIMTOL
 70
     0
  9
$DIMLIM
 70
     0
  9
$DIMTIH
 70
     1
  9
$DIMTOH
 70
     1
  9
$DIMSE1
 70
     0
  9
$DIMSE2
 70
     0
  9
$DIMTAD
 70
     0
  9
$DIMZIN
 70
     0
  9
$DIMBLK
  1

  9
$DIMASO
 70
     1
  9
$DIMSHO
 70
     1
  9
$DIMPOST
  1

  9
$DIMAPOST
  1

  9
$DIMALT
 70
     0
  9
$DIMALTD
 70
     2
  9
$DIMALTF
 40
25.4
  9
$DIMLFAC
 40
1.0
  9
$DIMTOFL
 70
     0
  9
$DIMTVP
 40
0.0
  9
$DIMTIX
 70
     0
  9
$DIMSOXD
 70
     0
  9
$DIMSAH
 70
     0
  9
$DIMBLK1
  1

  9
$DIMBLK2
  1

  9
$DIMSTYLE
  2
STANDARD
  9
$DIMCLRD
 70
     0
  9
$DIMCLRE
 70
     0
  9
$DIMCLRT
 70
     0
  9
$DIMTFAC
 40
1.0
  9
$DIMGAP
 40
0.09
  9
$LUNITS
 70
     2
  9
$LUPREC
 70
     1
  9
$SKETCHINC
 40
0.1
  9
$FILLETRAD
 40
0.5
  9
$AUNITS
 70
     0
  9
$AUPREC
 70
     2
  9
$MENU
  1
.
  9
$ELEVATION
 40
0.0
  9
$PELEVATION
 40
0.0
  9
$THICKNESS
 40
0.0
  9
$LIMCHECK
 70
     0
  9
$CHAMFERA
 40
0.0
  9
$CHAMFERB
 40
0.0
  9
$SKPOLY
 70
     0
  9
$TDCREATE
 40
2460455.665960012
  9
$TDUPDATE
 40
2460455.665964896
  9
$TDINDWG
 40
0.0000000116
  9
$TDUSRTIMER
 40
0.0000000116
  9
$USRTIMER
 70
     1
  9
$ANGBASE
 50
0.0
  9
$ANGDIR
 70
     0
  9
$PDMODE
 70
     1
  9
$PDSIZE
 40
-2.0
  9
$PLINEWID
 40
0.0
  9
$COORDS
 70
     1
  9
$SPLFRAME
 70
     0
  9
$SPLINETYPE
 70
     6
  9
$SPLINESEGS
 70
     8
  9
$ATTDIA
 70
     0
  9
$ATTREQ
 70
     1
  9
$HANDLING
 70
     1
  9
$HANDSEED
  5
BC0
  9
$SURFTAB1
 70
     6
  9
$SURFTAB2
 70
     6
  9
$SURFTYPE
 70
     6
  9
$SURFU
 70
     6
  9
$SURFV
 70
     6
  9
$UCSNAME
  2

  9
$UCSORG
 10
0.0
 20
0.0
 30
0.0
  9
$UCSXDIR
 10
1.0
 20
0.0
 30
0.0
  9
$UCSYDIR
 10
0.0
 20
1.0
 30
0.0
  9
$PUCSNAME
  2

  9
$PUCSORG
 10
0.0
 20
0.0
 30
0.0
  9
$PUCSXDIR
 10
1.0
 20
0.0
 30
0.0
  9
$PUCSYDIR
 10
0.0
 20
1.0
 30
0.0
  9
$USERI1
 70
     0
  9
$USERI2
 70
     0
  9
$USERI3
 70
     0
  9
$USERI4
 70
     0
  9
$USERI5
 70
     0
  9
$USERR1
 40
0.0
  9
$USERR2
 40
0.0
  9
$USERR3
 40
0.0
  9
$USERR4
 40
0.0
  9
$USERR5
 40
0.0
  9
$WORLDVIEW
 70
     1
  9
$SHADEDGE
 70
     3
  9
$SHADEDIF
 70
    70
  9
$TILEMODE
 70
     1
  9
$MAXACTVP
 70
    64
  9
$PLIMCHECK
 70
     0
  9
$PEXTMIN
 10
1.000000000000000E+20
 20
1.000000000000000E+20
 30
1.000000000000000E+20
  9
$PEXTMAX
 10
-1.000000000000000E+20
 20
-1.000000000000000E+20
 30
-1.000000000000000E+20
  9
$PLIMMIN
 10
-20.0
 20
-7.5
  9
$PLIMMAX
 10
277.0
 20
202.5
  9
$UNITMODE
 70
     0
  9
$VISRETAIN
 70
     1
  9
$PLINEGEN
 70
     0
  9
$PSLTSCALE
 70
     1
  0
ENDSEC
  0
SECTION
  2
TABLES
  0
TABLE
  2
VPORT
 70
     1
  0
VPORT
  2
*ACTIVE
 70
     0
 10
0.0
 20
0.0
 11
1.0
 21
1.0
 12
1903.303542065144
 22
634.1120608392945
 13
0.0
 23
0.0
 14
0.5
 24
0.5
 15
0.5
 25
0.5
 16
0.0
 26
0.0
 36
1.0
 17
0.0
 27
0.0
 37
0.0
 40
1559.306
 41
1.414196123147093
 42
2000.0
 43
0.0
 44
0.0
 50
0.0
 51
0.0
 71
     0
 72
   100
 73
     1
 74
     3
 75
     0
 76
     0
 77
     0
 78
     0
  0
ENDTAB
  0
TABLE
  2
LTYPE
 70
    12
  0
LTYPE
  2
CONTINUOUS
 70
     0
  3
Solid line
 72
    65
 73
     0
 40
0.0
  0
LTYPE
  2
ISO-07___
 70
     0
  3

 72
    65
 73
     2
 40
0.8889999999999999
 49
0.127
 49
-0.7619999999999998
  0
LTYPE
  2
ISO-02___
 70
     0
  3

 72
    65
 73
     2
 40
3.81
 49
3.048
 49
-0.7619999999999999
  0
LTYPE
  2
PHANTOM
 70
     0
  3

 72
    65
 73
     6
 40
15.875
 49
7.9375
 49
-1.5875
 49
1.5875
 49
-1.5875
 49
1.5875
 49
-1.5875
  0
LTYPE
  2
DIVIDE
 70
     0
  3

 72
    65
 73
     6
 40
7.937499999999998
 49
3.174999999999999
 49
-1.587499999999999
 49
0.0025399999999997
 49
-1.58496
 49
0.0025400000000004
 49
-1.584959999999999
  0
LTYPE
  2
CENTER
 70
     0
  3

 72
    65
 73
     4
 40
0.6
 49
0.3
 49
-0.1
 49
0.1
 49
-0.1
  0
LTYPE
  2
CENTERX2
 70
     0
  3

 72
    65
 73
     4
 40
25.4
 49
15.875
 49
-3.175
 49
3.175
 49
-3.175
  0
LTYPE
  2
DASHED2
 70
     0
  3

 72
    65
 73
     2
 40
2.38125
 49
1.5875
 49
-0.7937499999999997
  0
LTYPE
  2
DASHED
 70
     0
  3

 72
    65
 73
     2
 40
4.762499999999999
 49
3.174999999999999
 49
-1.587499999999999
  0
LTYPE
  2
ISO-10______
 70
     0
  3

 72
    65
 73
     4
 40
4.699
 49
3.048
 49
-0.7619999999999999
 49
0.1270000000000001
 49
-0.7619999999999999
  0
LTYPE
  2
DOT
 70
     0
  3

 72
    65
 73
     2
 40
1.5
 49
0.5
 49
-0.9999999999999999
  0
LTYPE
  2
_____-5
 70
     0
  3

 72
    65
 73
     2
 40
1.0580624
 49
0.352679
 49
-0.7053833999999999
  0
ENDTAB
  0
TABLE
  2
LAYER
 70
    13
  0
LAYER
  2
0
 70
     0
 62
     7
  6
CONTINUOUS
  0
LAYER
  2
__
 70
     0
 62
     7
  6
CONTINUOUS
  0
LAYER
  2
__-1
 70
     0
 62
     7
  6
CONTINUOUS
  0
LAYER
  2
__-2
 70
     0
 62
     7
  6
CONTINUOUS
  0
ENDTAB
  0
TABLE
  2
STYLE
 70
     3
  0
STYLE
  2
STANDARD
 70
     0
 40
0.0
 41
1.0
 50
0.0
 71
     0
 42
0.2
  3
txt
  4
BIGFONT.SHX
  0
STYLE
  2
______MEDIUM
 70
     0
 40
0.0
 41
1.0
 50
0.0
 71
     0
 42
0.2
  3

  4
游ゴシック Medium
  0
STYLE
  2
YUGOTHIC_MEDIUM
 70
     0
 40
0.0
 41
1.0
 50
0.0
 71
     0
 42
0.2
  3

  4
YuGothic Medium
  0
ENDTAB
  0
TABLE
  2
VIEW
 70
     0
  0
ENDTAB
  0
TABLE
  2
UCS
 70
     0
  0
ENDTAB
  0
TABLE
  2
APPID
 70
     3
  0
APPID
  2
ACAD
 70
     0
  0
APPID
  2
ACCMTRANSPARENCY
 70
     0
  0
APPID
  2
ACAECLAYERSTANDARD
 70
     0
  0
ENDTAB
  0
TABLE
  2
DIMSTYLE
 70
     1
  0
DIMSTYLE
  2
STANDARD
 70
     0
  3

  4

  5

  6

  7

 40
1.0
 41
0.18
 42
0.0625
 43
0.38
 44
0.18
 45
0.0
 46
0.0
 47
0.0
 48
0.0
140
0.18
141
0.09
142
0.0
143
25.4
144
1.0
145
0.0
146
1.0
147
0.09
 71
     0
 72
     0
 73
     1
 74
     1
 75
     0
 76
     0
 77
     0
 78
     0
170
     0
171
     2
172
     0
173
     0
174
     0
175
     0
176
     0
177
     0
178
     0
  0
ENDTAB
  0
ENDSEC
  0
SECTION
  2
BLOCKS
  0
BLOCK
  8
0
  2
$MODEL_SPACE
 70
     0
 10
0.0
 20
0.0
 30
0.0
  3
$MODEL_SPACE
  1

  0
ENDBLK
  5
21
  8
0
  0
BLOCK
 67
     1
  8
0
  2
$PAPER_SPACE
 70
     0
 10
0.0
 20
0.0
 30
0.0
  3
$PAPER_SPACE
  1

  0
ENDBLK
  5
1D
 67
     1
  8
0
  0
BLOCK
  8
0
  2
____
 70
     0
 10
0.0
 20
0.0
 30
0.0
  3
____
  1

  0
LINE
  5
38A
  8
__-2
  6
DOT
 62
     7
 10
1264.742984500047
 20
150.1520685188088
 30
0.0
 11
1283.947460090317
 21
150.1520685188309
 31
0.0
  0
LINE
  5
38B
  8
__-2
  6
DOT
 62
     7
 10
1275.475066731218
 20
156.860079058971
 30
0.0
 11
1275.475066731218
 21
142.1520685183941
 31
0.0
  0
LINE
  5
38C
  8
__-2
  6
DOT
 62
     7
 10
1273.875075379547
 20
158.5224433295161
 30
0.0
 11
1273.875060627698
 21
142.1520685183941
 31
0.0
  0
LINE
  5
38D
  8
__-2
  6
DOT
 62
     7
 10
1275.475066731218
 20
142.1520685183941
 30
0.0
 11
1273.875060627698
 21
142.1520685183941
 31
0.0
  0
LINE
  5
38E
  8
__-2
  6
DOT
 62
     7
 10
1281.025063679469
 20
148.9455685187431
 30
0.0
 11
1275.475066731218
 21
148.9455685187511
 31
0.0
  0
LINE
  5
38F
  8
__-2
  6
DOT
 62
     7
 10
1273.875066747108
 20
148.952068518827
 30
0.0
 11
1268.325063679458
 21
148.9520685188338
 31
0.0
  0
LINE
  5
390
  8
__-2
  6
DOT
 62
     7
 10
1281.025063679469
 20
151.3520685188059
 30
0.0
 11
1275.475066731218
 21
151.3520685188059
 31
0.0
  0
LINE
  5
391
  8
__-2
  6
DOT
 62
     7
 10
1281.025063679469
 20
151.3520685188059
 30
0.0
 11
1281.025063679469
 21
148.9455685187431
 31
0.0
  0
LINE
  5
392
  8
__-2
  6
DOT
 62
     7
 10
1268.325063679458
 20
151.3520685187989
 30
0.0
 11
1268.325063679458
 21
148.9520685188338
 31
0.0
  0
ARC
  5
393
  8
__-2
  6
DOT
 62
     7
 10
1291.995574543706
 20
168.032342418853
 30
0.0
 40
19.9999999999882
 50
194.7151498155054
 51
202.2818697743899
  0
ARC
  5
394
  8
__-2
  6
DOT
 62
     7
 10
1292.407104084753
 20
168.7816595880502
 30
0.0
 40
20.0000000000166
 50
196.9465555082473
 51
207.5507477044781
  0
ARC
  5
395
  8
__-2
  6
DOT
 62
     7
 10
1270.475066731216
 20
156.8600790589705
 30
0.0
 40
5.000000000002274
 50
0.0000000000061881
 51
32.45339337074208
  0
ARC
  5
396
  8
__-2
  6
DOT
 62
     7
 10
1268.875075886477
 20
158.5224478333836
 30
0.0
 40
5.000000000010914
 50
0.0000000000143303
 51
22.66394417263555
  0
LINE
  5
397
  8
__-2
  6
DOT
 62
     7
 10
1279.425063679458
 20
170.3520685187989
 30
0.0
 11
1279.425063679458
 21
165.831304528577
 31
0.0
  0
LINE
  5
398
  8
__-2
  6
DOT
 62
     7
 10
1269.925063679458
 20
170.3520685187989
 30
0.0
 11
1269.925063679458
 21
165.831304528577
 31
0.0
  0
LINE
  5
399
  8
__-2
  6
DOT
 62
     7
 10
1279.362812440188
 20
165.4839901727548
 30
0.0
 11
1278.425063679458
 21
162.9520685187979
 31
0.0
  0
LINE
  5
39A
  8
__-2
  6
DOT
 62
     7
 10
1269.987314918728
 20
165.4839901727548
 30
0.0
 11
1270.925063679458
 21
162.9520685187979
 31
0.0
  0
ARC
  5
39B
  8
__-2
  6
DOT
 62
     7
 10
1278.425063679484
 20
165.8313045285705
 30
0.0
 40
0.9999999999740722
 50
339.6768631701851
 51
0.0000000003696528
  0
ARC
  5
39C
  8
__-2
  6
DOT
 62
     7
 10
1270.925063679445
 20
165.8313045285755
 30
0.0
 40
0.9999999999863576
 50
179.9999999999137
 51
200.3231368298422
  0
LINE
  5
39D
  8
__-2
  6
DOT
 62
     7
 10
1270.925063679458
 20
162.9520685187979
 30
0.0
 11
1278.425063679458
 21
162.9520685187979
 31
0.0
  0
ARC
  5
39E
  8
__-2
  6
DOT
 62
     7
 10
1256.943038532962
 20
168.7816595880508
 30
0.0
 40
20.00000000001652
 50
332.4492494243194
 51
343.0534444917513
  0
ARC
  5
39F
  8
__-2
  6
DOT
 62
     7
 10
1257.354949543759
 20
169.5316595880228
 30
0.0
 40
19.99999999995374
 50
329.997743097336
 51
340.7931497508508
  0
LINE
  5
3A0
  8
__-2
  6
DOT
 62
     7
 10
1273.875066747108
 20
151.3520685188059
 30
0.0
 11
1268.325063679458
 21
151.3520685187989
 31
0.0
  0
ENDBLK
  5
70
  8
0
  0
BLOCK
  8
0
  2
____-1
 70
     0
 10
0.0
 20
0.0
 30
0.0
  3
____-1
  1

  0
LINE
  5
3A1
  8
__-2
  6
DOT
 62
     7
 10
1704.607142858877
 20
150.1520685188088
 30
0.0
 11
1685.402667268599
 21
150.1520685188309
 31
0.0
  0
LINE
  5
3A2
  8
__-2
  6
DOT
 62
     7
 10
1693.875060627709
 20
156.860079058971
 30
0.0
 11
1693.875060627709
 21
142.1520685183941
 31
0.0
  0
LINE
  5
3A3
  8
__-2
  6
DOT
 62
     7
 10
1695.475051979369
 20
158.5224433295161
 30
0.0
 11
1695.475066731218
 21
142.1520685183941
 31
0.0
  0
LINE
  5
3A4
  8
__-2
  6
DOT
 62
     7
 10
1693.875060627709
 20
142.1520685183941
 30
0.0
 11
1695.475066731218
 21
142.1520685183941
 31
0.0
  0
LINE
  5
3A5
  8
__-2
  6
DOT
 62
     7
 10
1688.325063679458
 20
148.9455685187431
 30
0.0
 11
1693.875060627709
 21
148.9455685187511
 31
0.0
  0
LINE
  5
3A6
  8
__-2
  6
DOT
 62
     7
 10
1695.475060611806
 20
148.952068518827
 30
0.0
 11
1701.025063679458
 21
148.9520685188338
 31
0.0
  0
LINE
  5
3A7
  8
__-2
  6
DOT
 62
     7
 10
1688.325063679458
 20
151.3520685188059
 30
0.0
 11
1693.875060627709
 21
151.3520685188059
 31
0.0
  0
LINE
  5
3A8
  8
__-2
  6
DOT
 62
     7
 10
1688.325063679458
 20
151.3520685188059
 30
0.0
 11
1688.325063679458
 21
148.9455685187431
 31
0.0
  0
LINE
  5
3A9
  8
__-2
  6
DOT
 62
     7
 10
1701.025063679458
 20
151.3520685187989
 30
0.0
 11
1701.025063679458
 21
148.9520685188338
 31
0.0
  0
ARC
  5
3AA
  8
__-2
  6
DOT
 62
     7
 10
1677.354552815126
 20
168.0323424188844
 30
0.0
 40
20.00000000008701
 50
337.7181302256288
 51
345.2848501844759
  0
ARC
  5
3AB
  8
__-2
  6
DOT
 62
     7
 10
1676.943023274212
 20
168.7816595880324
 30
0.0
 40
19.99999999997222
 50
332.4492522955122
 51
343.0534444917679
  0
ARC
  5
3AC
  8
__-2
  6
DOT
 62
     7
 10
1698.875060627704
 20
156.8600790589735
 30
0.0
 40
4.99999999999592
 50
147.5466066292562
 51
180.000000000029
  0
ARC
  5
3AD
  8
__-2
  6
DOT
 62
     7
 10
1700.475051472438
 20
158.5224478333811
 30
0.0
 40
5.000000000011809
 50
157.3360558273407
 51
179.9999999999573
  0
LINE
  5
3AE
  8
__-2
  6
DOT
 62
     7
 10
1689.925063679458
 20
170.3520685187989
 30
0.0
 11
1689.925063679458
 21
165.831304528577
 31
0.0
  0
LINE
  5
3AF
  8
__-2
  6
DOT
 62
     7
 10
1699.425063679458
 20
170.3520685187989
 30
0.0
 11
1699.425063679458
 21
165.831304528577
 31
0.0
  0
LINE
  5
3B0
  8
__-2
  6
DOT
 62
     7
 10
1689.987314918728
 20
165.4839901727548
 30
0.0
 11
1690.925063679458
 21
162.9520685187979
 31
0.0
  0
LINE
  5
3B1
  8
__-2
  6
DOT
 62
     7
 10
1699.362812440188
 20
165.4839901727548
 30
0.0
 11
1698.425063679458
 21
162.9520685187979
 31
0.0
  0
ARC
  5
3B2
  8
__-2
  6
DOT
 62
     7
 10
1690.925063679444
 20
165.8313045285755
 30
0.0
 40
0.9999999999863576
 50
179.9999999999137
 51
200.3231368298422
  0
ARC
  5
3B3
  8
__-2
  6
DOT
 62
     7
 10
1698.425063679456
 20
165.8313045285782
 30
0.0
 40
1.000000000002963
 50
339.6768631703293
 51
359.99999999993
  0
LINE
  5
3B4
  8
__-2
  6
DOT
 62
     7
 10
1698.425063679458
 20
162.9520685187979
 30
0.0
 11
1690.925063679458
 21
162.9520685187979
 31
0.0
  0
ARC
  5
3B5
  8
__-2
  6
DOT
 62
     7
 10
1712.407088825964
 20
168.7816595880506
 30
0.0
 40
20.00000000001652
 50
196.9465555082487
 51
207.5507505756806
  0
ARC
  5
3B6
  8
__-2
  6
DOT
 62
     7
 10
1711.995177815162
 20
169.5316595880246
 30
0.0
 40
19.99999999994954
 50
199.2068502491582
 51
210.002256902677
  0
LINE
  5
3B7
  8
__-2
  6
DOT
 62
     7
 10
1695.475060611806
 20
151.3520685188059
 30
0.0
 11
1701.025063679458
 21
151.3520685187989
 31
0.0
  0
ENDBLK
  5
73
  8
0
  0
BLOCK
  8
0
  2
____-2
 70
     0
 10
0.0
 20
0.0
 30
0.0
  3
____-2
  1

  0
LINE
  5
3B8
  8
__-2
  6
DOT
 62
     7
 10
1269.201046811938
 20
-125.988481138477
 30
0.0
 11
1280.660584822858
 21
-129.9779536008871
 31
0.0
  0
LINE
  5
3B9
  8
__-2
  6
DOT
 62
     7
 10
1275.475084292327
 20
-147.1728860369271
 30
0.0
 11
1275.475084292327
 21
-162.4501611223761
 31
0.0
  0
ARC
  5
3BA
  8
__-2
  6
DOT
 62
     7
 10
1270.475084292321
 20
-147.1728860369263
 30
0.0
 40
4.999999999996589
 50
359.9999999999905
 51
30.59118614892714
  0
LINE
  5
3BB
  8
__-2
  6
DOT
 62
     7
 10
1273.875093447598
 20
-145.5105172625131
 30
0.0
 11
1273.875078188797
 21
-162.4501611223761
 31
0.0
  0
ARC
  5
3BC
  8
__-2
  6
DOT
 62
     7
 10
1268.875093447585
 20
-145.5105172625145
 30
0.0
 40
5.000000000013188
 50
0.0000000000162844
 51
22.66394417262972
  0
LINE
  5
3BD
  8
__-2
  6
DOT
 62
     7
 10
1275.475084292327
 20
-162.4501611223761
 30
0.0
 11
1273.875078188797
 21
-162.4501611223761
 31
0.0
  0
ARC
  5
3BE
  8
__-2
  6
DOT
 62
     7
 10
1291.995592104829
 20
-134.4501611223765
 30
0.0
 40
20.00000000000194
 50
159.381684739594
 51
210.5911778405281
  0
ARC
  5
3BF
  8
__-2
  6
DOT
 62
     7
 10
1291.944597231785
 20
-135.8773843279421
 30
0.0
 40
20.00000000000622
 50
175.9078261398466
 51
202.6639441726635
  0
ARC
  5
3C0
  8
__-2
  6
DOT
 62
     7
 10
1257.419511782556
 20
-136.0604211321424
 30
0.0
 40
20.00000000000288
 50
4.618063473806099
 51
22.81650308887399
  0
ARC
  5
3C1
  8
__-2
  6
DOT
 62
     7
 10
1257.354570376297
 20
-134.4501611223765
 30
0.0
 40
19.99999999999946
 50
330.0000009863947
 51
17.26850116991494
  0
LINE
  5
3C2
  8
__-2
  6
DOT
 62
     7
 10
1268.325063679319
 20
-153.250161122379
 30
0.0
 11
1268.325063679327
 21
-155.6501611218421
 31
0.0
  0
LINE
  5
3C3
  8
__-2
  6
DOT
 62
     7
 10
1273.875086475918
 20
-153.250161122379
 30
0.0
 11
1268.325063679319
 21
-153.250161122379
 31
0.0
  0
LINE
  5
3C4
  8
__-2
  6
DOT
 62
     7
 10
1273.875086475918
 20
-155.6501611218421
 30
0.0
 11
1268.325063679327
 21
-155.6501611218421
 31
0.0
  0
LINE
  5
3C5
  8
__-2
  6
DOT
 62
     7
 10
1281.025063679288
 20
-153.250161122379
 30
0.0
 11
1281.025063679308
 21
-155.6501611218421
 31
0.0
  0
LINE
  5
3C6
  8
__-2
  6
DOT
 62
     7
 10
1281.025063679288
 20
-153.250161122379
 30
0.0
 11
1275.475084292327
 21
-153.250161122379
 31
0.0
  0
LINE
  5
3C7
  8
__-2
  6
DOT
 62
     7
 10
1281.025063679308
 20
-155.6501611218421
 30
0.0
 11
1275.475084292327
 21
-155.6501611218421
 31
0.0
  0
LINE
  5
3C8
  8
__-2
  6
DOT
 62
     7
 10
1312.675063679468
 20
-187.7179363104572
 30
0.0
 11
1312.675063679458
 21
-181.8916366925321
 31
0.0
  0
LINE
  5
3C9
  8
__-2
  6
DOT
 62
     7
 10
1332.675063679468
 20
-187.7179363104572
 30
0.0
 11
1332.675063679458
 21
-181.891636692528
 31
0.0
  0
LINE
  5
3CA
  8
__-2
  6
DOT
 62
     7
 10
1352.675063679468
 20
-187.717936310454
 30
0.0
 11
1352.675063679458
 21
-181.891636692528
 31
0.0
  0
LINE
  5
3CB
  8
__-2
  6
DOT
 62
     7
 10
1274.675063679458
 20
-141.172724867595
 30
0.0
 11
1274.675063679458
 21
-199.0585601730593
 31
0.0
  0
LINE
  5
3CC
  8
__-2
  6
DOT
 62
     7
 10
1267.675063679468
 20
-197.0179363104573
 30
0.0
 11
1281.675063679468
 21
-197.0179363104573
 31
0.0
  0
LINE
  5
3CD
  8
__-2
  6
DOT
 62
     7
 10
1281.675063679468
 20
-197.0179363104573
 30
0.0
 11
1281.675063679458
 21
-196.0179363104573
 31
0.0
  0
LINE
  5
3CE
  8
__-2
  6
DOT
 62
     7
 10
1267.675063679468
 20
-197.0179363104573
 30
0.0
 11
1267.675063679458
 21
-196.0179363104573
 31
0.0
  0
LINE
  5
3CF
  8
__-2
  6
DOT
 62
     7
 10
1267.175063679458
 20
-196.0179363104573
 30
0.0
 11
1282.175063679458
 21
-196.0179363104573
 31
0.0
  0
LINE
  5
3D0
  8
__-2
  6
DOT
 62
     7
 10
1267.175063679458
 20
-192.5179363104573
 30
0.0
 11
1291.175063679458
 21
-192.5179363104573
 31
0.0
  0
LINE
  5
3D1
  8
__-2
  6
DOT
 62
     7
 10
1266.675063679458
 20
-195.5179363104573
 30
0.0
 11
1266.675063679458
 21
-193.0179363104573
 31
0.0
  0
ARC
  5
3D2
  8
__-2
  6
DOT
 62
     7
 10
1267.175063679458
 20
-195.5179363104575
 30
0.0
 40
0.4999999999997726
 50
179.9999999999804
 51
270.000000000026
  0
ARC
  5
3D3
  8
__-2
  6
DOT
 62
     7
 10
1267.175063679458
 20
-193.0179363104572
 30
0.0
 40
0.4999999999998295
 50
89.99999999997397
 51
180.0000000000196
  0
ARC
  5
3D4
  8
__-2
  6
DOT
 62
     7
 10
1291.175063679458
 20
-193.0179363104572
 30
0.0
 40
0.4999999999997726
 50
359.9999999999804
 51
90.00000000002603
  0
LINE
  5
3D5
  8
__-2
  6
DOT
 62
     7
 10
1282.175063679458
 20
-197.0179363104573
 30
0.0
 11
1282.175063679458
 21
-196.0179363104573
 31
0.0
  0
ARC
  5
3D6
  8
__-2
  6
DOT
 62
     7
 10
1291.175063679458
 20
-196.5179363104575
 30
0.0
 40
0.4999999999998295
 50
269.999999999974
 51
0.0000000000195541
  0
ARC
  5
3D7
  8
__-2
  6
DOT
 62
     7
 10
1267.225063679458
 20
-191.0179363104573
 30
0.0
 40
0.5
 50
90.0
 51
270.0
  0
ARC
  5
3D8
  8
__-2
  6
DOT
 62
     7
 10
1267.225063679458
 20
-192.0179363104572
 30
0.0
 40
0.4999999999998863
 50
90.0
 51
264.2894068625276
  0
LINE
  5
3D9
  8
__-2
  6
DOT
 62
     7
 10
1267.225063679458
 20
-191.5179363104573
 30
0.0
 11
1278.675063679458
 21
-191.5179363104573
 31
0.0
  0
LINE
  5
3DA
  8
__-2
  6
DOT
 62
     7
 10
1282.175063679458
 20
-197.0179363104573
 30
0.0
 11
1291.175063679458
 21
-197.0179363104573
 31
0.0
  0
ARC
  5
3DB
  8
__-2
  6
DOT
 62
     7
 10
1274.675063679458
 20
-150.117936310455
 30
0.0
 40
2.5
 50
0.0
 51
180.0
  0
LINE
  5
3DC
  8
__-2
  6
DOT
 62
     7
 10
1272.175063679458
 20
-150.117936310455
 30
0.0
 11
1272.175063679458
 21
-155.117936310455
 31
0.0
  0
LINE
  5
3DD
  8
__-2
  6
DOT
 62
     7
 10
1277.175063679458
 20
-150.117936310455
 30
0.0
 11
1277.175063679458
 21
-155.1950606549242
 31
0.0
  0
ARC
  5
3DE
  8
__-2
  6
DOT
 62
     7
 10
1274.675063679458
 20
-150.117936310455
 30
0.0
 40
4.0
 50
0.0
 51
180.0
  0
LINE
  5
3DF
  8
__-2
  6
DOT
 62
     7
 10
1270.675063679458
 20
-150.117936310455
 30
0.0
 11
1270.675063679458
 21
-155.117936310455
 31
0.0
  0
LINE
  5
3E0
  8
__-2
  6
DOT
 62
     7
 10
1278.675063679458
 20
-150.117936310455
 30
0.0
 11
1278.675063679458
 21
-154.5179363104573
 31
0.0
  0
LINE
  5
3E1
  8
__-2
  6
DOT
 62
     7
 10
1269.675063679458
 20
-162.1137019470941
 30
0.0
 11
1270.175063679458
 21
-161.6137019470941
 31
0.0
  0
LINE
  5
3E2
  8
__-2
  6
DOT
 62
     7
 10
1270.175063679458
 20
-161.6137019470941
 30
0.0
 11
1273.925063679458
 21
-161.6137019470941
 31
0.0
  0
LINE
  5
3E3
  8
__-2
  6
DOT
 62
     7
 10
1275.425063679458
 20
-161.6137019470941
 30
0.0
 11
1276.675063679458
 21
-161.6137019470941
 31
0.0
  0
LINE
  5
3E4
  8
__-2
  6
DOT
 62
     7
 10
1269.675063679458
 20
-162.1137019470941
 30
0.0
 11
1273.925063679458
 21
-162.1137019470941
 31
0.0
  0
LINE
  5
3E5
  8
__-2
  6
DOT
 62
     7
 10
1275.425063679458
 20
-162.1137019470941
 30
0.0
 11
1276.675063679458
 21
-162.1137019470941
 31
0.0
  0
LINE
  5
3E6
  8
__-2
  6
DOT
 62
     7
 10
1269.675063679458
 20
-169.1161410108282
 30
0.0
 11
1269.675063679458
 21
-162.1137019470941
 31
0.0
  0
LINE
  5
3E7
  8
__-2
  6
DOT
 62
     7
 10
1269.675063410297
 20
-169.1161410108282
 30
0.0
 11
1276.675063679458
 21
-169.1161410108282
 31
0.0
  0
LINE
  5
3E8
  8
__-2
  6
DOT
 62
     7
 10
1270.075063410297
 20
-169.416141010827
 30
0.0
 11
1270.075063410297
 21
-169.1161410108282
 31
0.0
  0
LINE
  5
3E9
  8
__-2
  6
DOT
 62
     7
 10
1276.675063679458
 20
-158.206611445052
 30
0.0
 11
1274.675063679458
 21
-159.361311983432
 31
0.0
  0
LINE
  5
3EA
  8
__-2
  6
DOT
 62
     7
 10
1273.925063679458
 20
-165.5855433659551
 30
0.0
 11
1273.925063679458
 21
-160.6603500891063
 31
0.0
  0
ARC
  5
3EB
  8
__-2
  6
DOT
 62
     7
 10
1275.425063679458
 20
-160.6603500891059
 30
0.0
 40
1.499999999999551
 50
119.9999999999898
 51
180.0000000000152
  0
LINE
  5
3EC
  8
__-2
  6
DOT
 62
     7
 10
1275.425063679458
 20
-165.5855433659551
 30
0.0
 11
1275.425063679458
 21
-160.6603500891063
 31
0.0
  0
LINE
  5
3ED
  8
__-2
  6
DOT
 62
     7
 10
1275.425063679458
 20
-160.6603500891063
 30
0.0
 11
1276.675063679458
 21
-159.9386622526201
 31
0.0
  0
LINE
  5
3EE
  8
__-2
  6
DOT
 62
     7
 10
1270.675063679458
 20
-155.117936310455
 30
0.0
 11
1272.175063679458
 21
-155.117936310455
 31
0.0
  0
LINE
  5
3EF
  8
__-2
  6
DOT
 62
     7
 10
1273.925063679458
 20
-165.5855433659551
 30
0.0
 11
1275.425063679458
 21
-165.5855433659551
 31
0.0
  0
LINE
  5
3F0
  8
__-2
  6
DOT
 62
     7
 10
1268.425063679458
 20
-170.416141010827
 30
0.0
 11
1276.675063679458
 21
-170.416141010827
 31
0.0
  0
LINE
  5
3F1
  8
__-2
  6
DOT
 62
     7
 10
1268.425063679458
 20
-169.416141010827
 30
0.0
 11
1276.675063679458
 21
-169.416141010827
 31
0.0
  0
LINE
  5
3F2
  8
__-2
  6
DOT
 62
     7
 10
1268.425063679458
 20
-169.416141010827
 30
0.0
 11
1268.425063679458
 21
-170.416141010827
 31
0.0
  0
LINE
  5
3F3
  8
__-2
  6
DOT
 62
     7
 10
1291.675063679458
 20
-196.5179363104573
 30
0.0
 11
1291.675063679458
 21
-193.0179363104573
 31
0.0
  0
LINE
  5
3F4
  8
__-2
  6
DOT
 62
     7
 10
1265.675063679458
 20
-188.5179363104573
 30
0.0
 11
1265.675063679458
 21
-182.0179363104573
 31
0.0
  0
LINE
  5
3F5
  8
__-2
  6
DOT
 62
     7
 10
1283.675063679458
 20
-156.5179363104573
 30
0.0
 11
1283.675063679458
 21
-181.5179363104573
 31
0.0
  0
LINE
  5
3F6
  8
__-2
  6
DOT
 62
     7
 10
1283.675063679458
 20
-185.5179363104573
 30
0.0
 11
1283.675063679458
 21
-190.5179363104573
 31
0.0
  0
ARC
  5
3F7
  8
__-2
  6
DOT
 62
     7
 10
1281.675063679458
 20
-190.5179363104574
 30
0.0
 40
1.999999999999972
 50
269.9999999999935
 51
0.0000000000007958
  0
LINE
  5
3F8
  8
__-2
  6
DOT
 62
     7
 10
1291.675063679458
 20
-177.0179363104573
 30
0.0
 11
1291.675063679458
 21
-190.0179363104573
 31
0.0
  0
LINE
  5
3F9
  8
__-2
  6
DOT
 62
     7
 10
1267.675063679458
 20
-190.5179363104573
 30
0.0
 11
1278.675063679458
 21
-190.5179363104573
 31
0.0
  0
ARC
  5
3FA
  8
__-2
  6
DOT
 62
     7
 10
1267.675063679458
 20
-188.5179363104574
 30
0.0
 40
1.999999999999773
 50
179.9999999999992
 51
270.0000000000065
  0
LINE
  5
3FB
  8
__-2
  6
DOT
 62
     7
 10
1268.175063679468
 20
-170.916141010827
 30
0.0
 11
1276.675063679458
 21
-170.916141010827
 31
0.0
  0
LINE
  5
3FC
  8
__-2
  6
DOT
 62
     7
 10
1278.675063679458
 20
-154.5179363104573
 30
0.0
 11
1284.175063679458
 21
-154.5179363104573
 31
0.0
  0
ARC
  5
3FD
  8
__-2
  6
DOT
 62
     7
 10
1281.675063679458
 20
-156.5179363104573
 30
0.0
 40
1.999999999999773
 50
359.9999999999993
 51
90.00000000000654
  0
LINE
  5
3FE
  8
__-2
  6
DOT
 62
     7
 10
1276.675063679458
 20
-156.5179363104573
 30
0.0
 11
1276.675063679458
 21
-172.916141010827
 31
0.0
  0
ARC
  5
3FF
  8
__-2
  6
DOT
 62
     7
 10
1278.675063679458
 20
-156.5179363104573
 30
0.0
 40
1.999999999999972
 50
89.99999999999349
 51
180.0000000000009
  0
LINE
  5
400
  8
__-2
  6
DOT
 62
     7
 10
1276.675063679458
 20
-178.0179363104573
 30
0.0
 11
1276.675063679458
 21
-180.0179363104573
 31
0.0
  0
LINE
  5
401
  8
__-2
  6
DOT
 62
     7
 10
1285.175063679458
 20
-155.5179363104573
 30
0.0
 11
1285.175063679458
 21
-170.6037227480831
 31
0.0
  0
ARC
  5
402
  8
__-2
  6
DOT
 62
     7
 10
1284.175063679458
 20
-155.5179363104574
 30
0.0
 40
0.9999999999997726
 50
0.0000000000016485
 51
90.00000000001307
  0
LINE
  5
403
  8
__-2
  6
DOT
 62
     7
 10
1278.675063679458
 20
-190.5179363104573
 30
0.0
 11
1278.675063679458
 21
-192.5179363104573
 31
0.0
  0
LINE
  5
404
  8
__-2
  6
DOT
 62
     7
 10
1267.675063679458
 20
-180.0179363104573
 30
0.0
 11
1276.675063679458
 21
-180.0179363104573
 31
0.0
  0
ARC
  5
405
  8
__-2
  6
DOT
 62
     7
 10
1267.675063679458
 20
-182.0179363104573
 30
0.0
 40
1.999999999999972
 50
89.99999999999349
 51
180.0000000000009
  0
LINE
  5
406
  8
__-2
  6
DOT
 62
     7
 10
1267.175063679468
 20
-171.916141010827
 30
0.0
 11
1267.175063679468
 21
-180.0179363104573
 31
0.0
  0
ARC
  5
407
  8
__-2
  6
DOT
 62
     7
 10
1268.175063679468
 20
-171.916141010827
 30
0.0
 40
1.000000000000028
 50
89.99999999998697
 51
179.9999999999984
  0
LINE
  5
408
  8
__-2
  6
DOT
 62
     7
 10
1280.675063679458
 20
-172.916141010827
 30
0.0
 11
1280.675063679458
 21
-178.0179363104573
 31
0.0
  0
LINE
  5
409
  8
__-2
  6
DOT
 62
     7
 10
1280.675063679458
 20
-172.916141010827
 30
0.0
 11
1276.675063679458
 21
-172.916141010827
 31
0.0
  0
LINE
  5
40A
  8
__-2
  6
DOT
 62
     7
 10
1276.675063679458
 20
-178.0179363104573
 30
0.0
 11
1280.675063679458
 21
-178.0179363104573
 31
0.0
  0
LINE
  5
40B
  8
__-2
  6
DOT
 62
     7
 10
1269.675063679458
 20
-170.416141010827
 30
0.0
 11
1269.675063679458
 21
-170.916141010827
 31
0.0
  0
LINE
  5
40C
  8
__-2
  6
DOT
 62
     7
 10
1290.675063679458
 20
-191.0179363104573
 30
0.0
 11
1289.675063679458
 21
-191.0179363104573
 31
0.0
  0
ARC
  5
40D
  8
__-2
  6
DOT
 62
     7
 10
1290.675063679458
 20
-190.0179363104573
 30
0.0
 40
1.000000000000028
 50
269.999999999987
 51
359.9999999999985
  0
LINE
  5
40E
  8
__-2
  6
DOT
 62
     7
 10
1289.675063679458
 20
-192.0179363104573
 30
0.0
 11
1289.675063679458
 21
-175.9321498728302
 31
0.0
  0
ARC
  5
40F
  8
__-2
  6
DOT
 62
     7
 10
1289.175063679458
 20
-192.0179363104575
 30
0.0
 40
0.4999999999998295
 50
269.999999999974
 51
0.0000000000195541
  0
LINE
  5
410
  8
__-2
  6
DOT
 62
     7
 10
1289.382170460648
 20
-175.2250430916449
 30
0.0
 11
1285.467956898278
 21
-171.310829529272
 31
0.0
  0
ARC
  5
411
  8
__-2
  6
DOT
 62
     7
 10
1286.175063679458
 20
-170.6037227480834
 30
0.0
 40
0.9999999999997726
 50
179.9999999999854
 51
224.9999999999988
  0
LINE
  5
412
  8
__-2
  6
DOT
 62
     7
 10
1285.175063679458
 20
-181.5179363104573
 30
0.0
 11
1285.175063679458
 21
-185.5179363104573
 31
0.0
  0
LINE
  5
413
  8
__-2
  6
DOT
 62
     7
 10
1285.175063679458
 20
-185.5179363104573
 30
0.0
 11
1282.675063679458
 21
-185.5179363104573
 31
0.0
  0
LINE
  5
414
  8
__-2
  6
DOT
 62
     7
 10
1282.675063679458
 20
-181.5179363104573
 30
0.0
 11
1285.175063679458
 21
-181.5179363104573
 31
0.0
  0
LINE
  5
415
  8
__-2
  6
DOT
 62
     7
 10
1282.675063679458
 20
-181.5179363104573
 30
0.0
 11
1282.675063679458
 21
-185.5179363104573
 31
0.0
  0
LINE
  5
416
  8
__-2
  6
DOT
 62
     7
 10
1291.675063679458
 20
-181.2179363104572
 30
0.0
 11
1361.175063679458
 21
-181.2179363104572
 31
0.0
  0
LINE
  5
417
  8
__-2
  6
DOT
 62
     7
 10
1362.675063679458
 20
-182.7179363104572
 30
0.0
 11
1362.675063679458
 21
-186.2179363104572
 31
0.0
  0
ARC
  5
418
  8
__-2
  6
DOT
 62
     7
 10
1361.175063679458
 20
-182.7179363104573
 30
0.0
 40
1.500000000000227
 50
0.000000000005457
 51
89.9999999999913
  0
LINE
  5
419
  8
__-2
  6
DOT
 62
     7
 10
1362.675063679458
 20
-186.2179363104572
 30
0.0
 11
1291.675063679458
 21
-186.2179363104572
 31
0.0
  0
LINE
  5
41A
  8
__-2
  6
DOT
 62
     7
 10
1362.675063679458
 20
-184.7179363104572
 30
0.0
 11
1291.675063679458
 21
-184.7179363104572
 31
0.0
  0
LINE
  5
41B
  8
__-2
  6
DOT
 62
     7
 10
1290.675063679458
 20
-176.0179363104573
 30
0.0
 11
1289.675063679458
 21
-176.0179363104573
 31
0.0
  0
ARC
  5
41C
  8
__-2
  6
DOT
 62
     7
 10
1290.675063679458
 20
-177.0179363104574
 30
0.0
 40
0.9999999999997726
 50
0.0000000000016485
 51
90.00000000001307
  0
ARC
  5
41D
  8
__-2
  6
DOT
 62
     7
 10
1288.675063679458
 20
-175.93214987283
 30
0.0
 40
0.9999999999997726
 50
359.9999999999853
 51
44.99999999999881
  0
ENDBLK
  5
76
  8
0
  0
BLOCK
  8
0
  2
____-3
 70
     0
 10
0.0
 20
0.0
 30
0.0
  3
____-3
  1

  0
LINE
  5
41E
  8
__-2
  6
DOT
 62
     7
 10
1700.149080546978
 20
-125.988481138477
 30
0.0
 11
1688.689542536056
 21
-129.9779536008871
 31
0.0
  0
LINE
  5
41F
  8
__-2
  6
DOT
 62
     7
 10
1693.875043066597
 20
-147.1728860369271
 30
0.0
 11
1693.875043066597
 21
-162.4501611223761
 31
0.0
  0
ARC
  5
420
  8
__-2
  6
DOT
 62
     7
 10
1698.875043066616
 20
-147.1728860369298
 30
0.0
 40
5.000000000007277
 50
149.4088138511055
 51
179.9999999999697
  0
LINE
  5
421
  8
__-2
  6
DOT
 62
     7
 10
1695.475033911326
 20
-145.5105172625131
 30
0.0
 11
1695.475049170119
 21
-162.4501611223761
 31
0.0
  0
ARC
  5
422
  8
__-2
  6
DOT
 62
     7
 10
1700.475033911315
 20
-145.5105172625099
 30
0.0
 40
4.999999999988607
 50
157.3360558273148
 51
180.0000000000358
  0
LINE
  5
423
  8
__-2
  6
DOT
 62
     7
 10
1693.875043066597
 20
-162.4501611223761
 30
0.0
 11
1695.475049170119
 21
-162.4501611223761
 31
0.0
  0
ARC
  5
424
  8
__-2
  6
DOT
 62
     7
 10
1677.354535254094
 20
-134.4501611223753
 30
0.0
 40
20.00000000000297
 50
329.4088221594695
 51
20.6183152604026
  0
ARC
  5
425
  8
__-2
  6
DOT
 62
     7
 10
1677.405530127139
 20
-135.8773843279402
 30
0.0
 40
20.00000000000857
 50
337.3360558273321
 51
4.092173860147682
  0
ARC
  5
426
  8
__-2
  6
DOT
 62
     7
 10
1711.930615576368
 20
-136.0604211321419
 30
0.0
 40
19.99999999999945
 50
157.1834969111242
 51
175.3819365261946
  0
ARC
  5
427
  8
__-2
  6
DOT
 62
     7
 10
1711.99555698262
 20
-134.4501611223763
 30
0.0
 40
20.00000000000201
 50
162.731498830088
 51
209.9999990136025
  0
LINE
  5
428
  8
__-2
  6
DOT
 62
     7
 10
1701.025063679607
 20
-153.250161122379
 30
0.0
 11
1701.025063679597
 21
-155.6501611218421
 31
0.0
  0
LINE
  5
429
  8
__-2
  6
DOT
 62
     7
 10
1695.475040882998
 20
-153.250161122379
 30
0.0
 11
1701.025063679607
 21
-153.250161122379
 31
0.0
  0
LINE
  5
42A
  8
__-2
  6
DOT
 62
     7
 10
1695.475040882998
 20
-155.6501611218421
 30
0.0
 11
1701.025063679597
 21
-155.6501611218421
 31
0.0
  0
LINE
  5
42B
  8
__-2
  6
DOT
 62
     7
 10
1688.325063679627
 20
-153.250161122379
 30
0.0
 11
1688.325063679607
 21
-155.6501611218421
 31
0.0
  0
LINE
  5
42C
  8
__-2
  6
DOT
 62
     7
 10
1688.325063679627
 20
-153.250161122379
 30
0.0
 11
1693.875043066597
 21
-153.250161122379
 31
0.0
  0
LINE
  5
42D
  8
__-2
  6
DOT
 62
     7
 10
1688.325063679607
 20
-155.6501611218421
 30
0.0
 11
1693.875043066597
 21
-155.6501611218421
 31
0.0
  0
LINE
  5
42E
  8
__-2
  6
DOT
 62
     7
 10
1656.675063679446
 20
-187.7179363104572
 30
0.0
 11
1656.675063679458
 21
-181.8916366925321
 31
0.0
  0
LINE
  5
42F
  8
__-2
  6
DOT
 62
     7
 10
1636.675063679446
 20
-187.7179363104572
 30
0.0
 11
1636.675063679458
 21
-181.891636692528
 31
0.0
  0
LINE
  5
430
  8
__-2
  6
DOT
 62
     7
 10
1616.675063679446
 20
-187.717936310454
 30
0.0
 11
1616.675063679458
 21
-181.891636692528
 31
0.0
  0
LINE
  5
431
  8
__-2
  6
DOT
 62
     7
 10
1694.675063679458
 20
-141.172724867595
 30
0.0
 11
1694.675063679458
 21
-199.0585601730593
 31
0.0
  0
LINE
  5
432
  8
__-2
  6
DOT
 62
     7
 10
1701.675063679446
 20
-197.0179363104573
 30
0.0
 11
1687.675063679446
 21
-197.0179363104573
 31
0.0
  0
LINE
  5
433
  8
__-2
  6
DOT
 62
     7
 10
1687.675063679446
 20
-197.0179363104573
 30
0.0
 11
1687.675063679458
 21
-196.0179363104573
 31
0.0
  0
LINE
  5
434
  8
__-2
  6
DOT
 62
     7
 10
1701.675063679446
 20
-197.0179363104573
 30
0.0
 11
1701.675063679458
 21
-196.0179363104573
 31
0.0
  0
LINE
  5
435
  8
__-2
  6
DOT
 62
     7
 10
1702.175063679458
 20
-196.0179363104573
 30
0.0
 11
1687.175063679458
 21
-196.0179363104573
 31
0.0
  0
LINE
  5
436
  8
__-2
  6
DOT
 62
     7
 10
1702.175063679458
 20
-192.5179363104573
 30
0.0
 11
1678.175063679458
 21
-192.5179363104573
 31
0.0
  0
LINE
  5
437
  8
__-2
  6
DOT
 62
     7
 10
1702.675063679458
 20
-195.5179363104573
 30
0.0
 11
1702.675063679458
 21
-193.0179363104573
 31
0.0
  0
ARC
  5
438
  8
__-2
  6
DOT
 62
     7
 10
1702.175063679458
 20
-195.5179363104575
 30
0.0
 40
0.4999999999998295
 50
269.999999999974
 51
0.0000000000195541
  0
ARC
  5
439
  8
__-2
  6
DOT
 62
     7
 10
1702.175063679458
 20
-193.0179363104572
 30
0.0
 40
0.4999999999997726
 50
359.9999999999804
 51
90.00000000002603
  0
ARC
  5
43A
  8
__-2
  6
DOT
 62
     7
 10
1678.175063679458
 20
-193.0179363104572
 30
0.0
 40
0.4999999999998295
 50
89.99999999997397
 51
180.0000000000196
  0
LINE
  5
43B
  8
__-2
  6
DOT
 62
     7
 10
1687.175063679458
 20
-197.0179363104573
 30
0.0
 11
1687.175063679458
 21
-196.0179363104573
 31
0.0
  0
ARC
  5
43C
  8
__-2
  6
DOT
 62
     7
 10
1678.175063679458
 20
-196.5179363104575
 30
0.0
 40
0.4999999999997726
 50
179.9999999999804
 51
270.000000000026
  0
ARC
  5
43D
  8
__-2
  6
DOT
 62
     7
 10
1702.125063679458
 20
-191.0179363104573
 30
0.0
 40
0.5
 50
270.0
 51
90.0
  0
ARC
  5
43E
  8
__-2
  6
DOT
 62
     7
 10
1702.125063679458
 20
-192.0179363104572
 30
0.0
 40
0.5000000000001145
 50
275.7105931374698
 51
90.0
  0
LINE
  5
43F
  8
__-2
  6
DOT
 62
     7
 10
1702.125063679458
 20
-191.5179363104573
 30
0.0
 11
1690.675063679458
 21
-191.5179363104573
 31
0.0
  0
LINE
  5
440
  8
__-2
  6
DOT
 62
     7
 10
1687.175063679458
 20
-197.0179363104573
 30
0.0
 11
1678.175063679458
 21
-197.0179363104573
 31
0.0
  0
ARC
  5
441
  8
__-2
  6
DOT
 62
     7
 10
1694.675063679458
 20
-150.117936310455
 30
0.0
 40
2.5
 50
0.0
 51
180.0
  0
LINE
  5
442
  8
__-2
  6
DOT
 62
     7
 10
1697.175063679458
 20
-150.117936310455
 30
0.0
 11
1697.175063679458
 21
-155.117936310455
 31
0.0
  0
LINE
  5
443
  8
__-2
  6
DOT
 62
     7
 10
1692.175063679458
 20
-150.117936310455
 30
0.0
 11
1692.175063679458
 21
-155.1950606549242
 31
0.0
  0
ARC
  5
444
  8
__-2
  6
DOT
 62
     7
 10
1694.675063679458
 20
-150.117936310455
 30
0.0
 40
4.0
 50
0.0
 51
180.0
  0
LINE
  5
445
  8
__-2
  6
DOT
 62
     7
 10
1698.675063679458
 20
-150.117936310455
 30
0.0
 11
1698.675063679458
 21
-155.117936310455
 31
0.0
  0
LINE
  5
446
  8
__-2
  6
DOT
 62
     7
 10
1690.675063679458
 20
-150.117936310455
 30
0.0
 11
1690.675063679458
 21
-154.5179363104573
 31
0.0
  0
LINE
  5
447
  8
__-2
  6
DOT
 62
     7
 10
1699.675063679458
 20
-162.1137019470941
 30
0.0
 11
1699.175063679458
 21
-161.6137019470941
 31
0.0
  0
LINE
  5
448
  8
__-2
  6
DOT
 62
     7
 10
1699.175063679458
 20
-161.6137019470941
 30
0.0
 11
1695.425063679458
 21
-161.6137019470941
 31
0.0
  0
LINE
  5
449
  8
__-2
  6
DOT
 62
     7
 10
1693.925063679458
 20
-161.6137019470941
 30
0.0
 11
1692.675063679458
 21
-161.6137019470941
 31
0.0
  0
LINE
  5
44A
  8
__-2
  6
DOT
 62
     7
 10
1699.675063679458
 20
-162.1137019470941
 30
0.0
 11
1695.425063679458
 21
-162.1137019470941
 31
0.0
  0
LINE
  5
44B
  8
__-2
  6
DOT
 62
     7
 10
1693.925063679458
 20
-162.1137019470941
 30
0.0
 11
1692.675063679458
 21
-162.1137019470941
 31
0.0
  0
LINE
  5
44C
  8
__-2
  6
DOT
 62
     7
 10
1699.675063679458
 20
-169.1161410108282
 30
0.0
 11
1699.675063679458
 21
-162.1137019470941
 31
0.0
  0
LINE
  5
44D
  8
__-2
  6
DOT
 62
     7
 10
1699.675063948627
 20
-169.1161410108282
 30
0.0
 11
1692.675063679458
 21
-169.1161410108282
 31
0.0
  0
LINE
  5
44E
  8
__-2
  6
DOT
 62
     7
 10
1699.275063948619
 20
-169.416141010827
 30
0.0
 11
1699.275063948628
 21
-169.1161410108282
 31
0.0
  0
LINE
  5
44F
  8
__-2
  6
DOT
 62
     7
 10
1692.675063679458
 20
-158.206611445052
 30
0.0
 11
1694.675063679458
 21
-159.361311983432
 31
0.0
  0
LINE
  5
450
  8
__-2
  6
DOT
 62
     7
 10
1695.425063679458
 20
-165.5855433659551
 30
0.0
 11
1695.425063679458
 21
-160.6603500891063
 31
0.0
  0
ARC
  5
451
  8
__-2
  6
DOT
 62
     7
 10
1693.925063679457
 20
-160.6603500891067
 30
0.0
 40
1.500000000000909
 50
0.0000000000151988
 51
59.99999999998023
  0
LINE
  5
452
  8
__-2
  6
DOT
 62
     7
 10
1693.925063679458
 20
-165.5855433659551
 30
0.0
 11
1693.925063679458
 21
-160.6603500891063
 31
0.0
  0
LINE
  5
453
  8
__-2
  6
DOT
 62
     7
 10
1693.925063679458
 20
-160.6603500891063
 30
0.0
 11
1692.675063679458
 21
-159.9386622526201
 31
0.0
  0
LINE
  5
454
  8
__-2
  6
DOT
 62
     7
 10
1698.675063679458
 20
-155.117936310455
 30
0.0
 11
1697.175063679458
 21
-155.117936310455
 31
0.0
  0
LINE
  5
455
  8
__-2
  6
DOT
 62
     7
 10
1695.425063679458
 20
-165.5855433659551
 30
0.0
 11
1693.925063679458
 21
-165.5855433659551
 31
0.0
  0
LINE
  5
456
  8
__-2
  6
DOT
 62
     7
 10
1700.925063679458
 20
-170.416141010827
 30
0.0
 11
1692.675063679458
 21
-170.416141010827
 31
0.0
  0
LINE
  5
457
  8
__-2
  6
DOT
 62
     7
 10
1700.925063679458
 20
-169.416141010827
 30
0.0
 11
1692.675063679458
 21
-169.416141010827
 31
0.0
  0
LINE
  5
458
  8
__-2
  6
DOT
 62
     7
 10
1700.925063679458
 20
-169.416141010827
 30
0.0
 11
1700.925063679458
 21
-170.416141010827
 31
0.0
  0
LINE
  5
459
  8
__-2
  6
DOT
 62
     7
 10
1677.675063679458
 20
-196.5179363104573
 30
0.0
 11
1677.675063679458
 21
-193.0179363104573
 31
0.0
  0
LINE
  5
45A
  8
__-2
  6
DOT
 62
     7
 10
1703.675063679458
 20
-188.5179363104573
 30
0.0
 11
1703.675063679458
 21
-182.0179363104573
 31
0.0
  0
LINE
  5
45B
  8
__-2
  6
DOT
 62
     7
 10
1685.675063679458
 20
-156.5179363104573
 30
0.0
 11
1685.675063679458
 21
-181.5179363104573
 31
0.0
  0
LINE
  5
45C
  8
__-2
  6
DOT
 62
     7
 10
1685.675063679458
 20
-185.5179363104573
 30
0.0
 11
1685.675063679458
 21
-190.5179363104573
 31
0.0
  0
ARC
  5
45D
  8
__-2
  6
DOT
 62
     7
 10
1687.675063679458
 20
-190.5179363104574
 30
0.0
 40
2.0
 50
179.9999999999992
 51
270.0
  0
LINE
  5
45E
  8
__-2
  6
DOT
 62
     7
 10
1677.675063679458
 20
-177.0179363104573
 30
0.0
 11
1677.675063679458
 21
-190.0179363104573
 31
0.0
  0
LINE
  5
45F
  8
__-2
  6
DOT
 62
     7
 10
1701.675063679458
 20
-190.5179363104573
 30
0.0
 11
1690.675063679458
 21
-190.5179363104573
 31
0.0
  0
ARC
  5
460
  8
__-2
  6
DOT
 62
     7
 10
1701.675063679458
 20
-188.5179363104574
 30
0.0
 40
1.999999999999972
 50
270.0
 51
0.0000000000007958
  0
LINE
  5
461
  8
__-2
  6
DOT
 62
     7
 10
1701.175063679446
 20
-170.916141010827
 30
0.0
 11
1692.675063679458
 21
-170.916141010827
 31
0.0
  0
LINE
  5
462
  8
__-2
  6
DOT
 62
     7
 10
1690.675063679458
 20
-154.5179363104573
 30
0.0
 11
1685.175063679458
 21
-154.5179363104573
 31
0.0
  0
ARC
  5
463
  8
__-2
  6
DOT
 62
     7
 10
1687.675063679458
 20
-156.5179363104573
 30
0.0
 40
1.999999999999972
 50
90.0
 51
180.0000000000008
  0
LINE
  5
464
  8
__-2
  6
DOT
 62
     7
 10
1692.675063679458
 20
-156.5179363104573
 30
0.0
 11
1692.675063679458
 21
-172.916141010827
 31
0.0
  0
ARC
  5
465
  8
__-2
  6
DOT
 62
     7
 10
1690.675063679458
 20
-156.5179363104573
 30
0.0
 40
2.0
 50
359.9999999999993
 51
90.0
  0
LINE
  5
466
  8
__-2
  6
DOT
 62
     7
 10
1692.675063679458
 20
-178.0179363104573
 30
0.0
 11
1692.675063679458
 21
-180.0179363104573
 31
0.0
  0
LINE
  5
467
  8
__-2
  6
DOT
 62
     7
 10
1684.175063679458
 20
-155.5179363104573
 30
0.0
 11
1684.175063679458
 21
-170.6037227480831
 31
0.0
  0
ARC
  5
468
  8
__-2
  6
DOT
 62
     7
 10
1685.175063679458
 20
-155.5179363104574
 30
0.0
 40
1.000000000000028
 50
90.0
 51
179.9999999999984
  0
LINE
  5
469
  8
__-2
  6
DOT
 62
     7
 10
1690.675063679458
 20
-190.5179363104573
 30
0.0
 11
1690.675063679458
 21
-192.5179363104573
 31
0.0
  0
LINE
  5
46A
  8
__-2
  6
DOT
 62
     7
 10
1701.675063679458
 20
-180.0179363104573
 30
0.0
 11
1692.675063679458
 21
-180.0179363104573
 31
0.0
  0
ARC
  5
46B
  8
__-2
  6
DOT
 62
     7
 10
1701.675063679458
 20
-182.0179363104573
 30
0.0
 40
2.0
 50
359.9999999999993
 51
90.0
  0
LINE
  5
46C
  8
__-2
  6
DOT
 62
     7
 10
1702.175063679446
 20
-171.916141010827
 30
0.0
 11
1702.175063679446
 21
-180.0179363104573
 31
0.0
  0
ARC
  5
46D
  8
__-2
  6
DOT
 62
     7
 10
1701.175063679446
 20
-171.916141010827
 30
0.0
 40
1.0
 50
0.0000000000016485
 51
90.0
  0
LINE
  5
46E
  8
__-2
  6
DOT
 62
     7
 10
1688.675063679458
 20
-172.916141010827
 30
0.0
 11
1688.675063679458
 21
-178.0179363104573
 31
0.0
  0
LINE
  5
46F
  8
__-2
  6
DOT
 62
     7
 10
1688.675063679458
 20
-172.916141010827
 30
0.0
 11
1692.675063679458
 21
-172.916141010827
 31
0.0
  0
LINE
  5
470
  8
__-2
  6
DOT
 62
     7
 10
1692.675063679458
 20
-178.0179363104573
 30
0.0
 11
1688.675063679458
 21
-178.0179363104573
 31
0.0
  0
LINE
  5
471
  8
__-2
  6
DOT
 62
     7
 10
1699.675063679458
 20
-170.416141010827
 30
0.0
 11
1699.675063679458
 21
-170.916141010827
 31
0.0
  0
LINE
  5
472
  8
__-2
  6
DOT
 62
     7
 10
1678.675063679458
 20
-191.0179363104573
 30
0.0
 11
1679.675063679458
 21
-191.0179363104573
 31
0.0
  0
ARC
  5
473
  8
__-2
  6
DOT
 62
     7
 10
1678.675063679458
 20
-190.0179363104573
 30
0.0
 40
1.0
 50
180.0000000000016
 51
270.0
  0
LINE
  5
474
  8
__-2
  6
DOT
 62
     7
 10
1679.675063679458
 20
-192.0179363104573
 30
0.0
 11
1679.675063679458
 21
-175.9321498728302
 31
0.0
  0
ARC
  5
475
  8
__-2
  6
DOT
 62
     7
 10
1680.175063679458
 20
-192.0179363104575
 30
0.0
 40
0.4999999999997726
 50
179.9999999999804
 51
270.000000000026
  0
LINE
  5
476
  8
__-2
  6
DOT
 62
     7
 10
1679.967956898278
 20
-175.2250430916449
 30
0.0
 11
1683.882170460647
 21
-171.310829529272
 31
0.0
  0
ARC
  5
477
  8
__-2
  6
DOT
 62
     7
 10
1683.175063679458
 20
-170.6037227480834
 30
0.0
 40
0.999999999999787
 50
315.0000000000035
 51
0.0000000000179057
  0
LINE
  5
478
  8
__-2
  6
DOT
 62
     7
 10
1684.175063679458
 20
-181.5179363104573
 30
0.0
 11
1684.175063679458
 21
-185.5179363104573
 31
0.0
  0
LINE
  5
479
  8
__-2
  6
DOT
 62
     7
 10
1684.175063679458
 20
-185.5179363104573
 30
0.0
 11
1686.675063679458
 21
-185.5179363104573
 31
0.0
  0
LINE
  5
47A
  8
__-2
  6
DOT
 62
     7
 10
1686.675063679458
 20
-181.5179363104573
 30
0.0
 11
1684.175063679458
 21
-181.5179363104573
 31
0.0
  0
LINE
  5
47B
  8
__-2
  6
DOT
 62
     7
 10
1686.675063679458
 20
-181.5179363104573
 30
0.0
 11
1686.675063679458
 21
-185.5179363104573
 31
0.0
  0
LINE
  5
47C
  8
__-2
  6
DOT
 62
     7
 10
1677.675063679458
 20
-181.2179363104572
 30
0.0
 11
1608.175063679458
 21
-181.2179363104572
 31
0.0
  0
LINE
  5
47D
  8
__-2
  6
DOT
 62
     7
 10
1606.675063679458
 20
-182.7179363104572
 30
0.0
 11
1606.675063679458
 21
-186.2179363104572
 31
0.0
  0
ARC
  5
47E
  8
__-2
  6
DOT
 62
     7
 10
1608.175063679458
 20
-182.7179363104573
 30
0.0
 40
1.500000000000142
 50
90.0000000000087
 51
179.9999999999946
  0
LINE
  5
47F
  8
__-2
  6
DOT
 62
     7
 10
1606.675063679458
 20
-186.2179363104572
 30
0.0
 11
1677.675063679458
 21
-186.2179363104572
 31
0.0
  0
LINE
  5
480
  8
__-2
  6
DOT
 62
     7
 10
1606.675063679458
 20
-184.7179363104572
 30
0.0
 11
1677.675063679458
 21
-184.7179363104572
 31
0.0
  0
LINE
  5
481
  8
__-2
  6
DOT
 62
     7
 10
1678.675063679458
 20
-176.0179363104573
 30
0.0
 11
1679.675063679458
 21
-176.0179363104573
 31
0.0
  0
ARC
  5
482
  8
__-2
  6
DOT
 62
     7
 10
1678.675063679458
 20
-177.0179363104574
 30
0.0
 40
1.000000000000028
 50
90.0
 51
179.9999999999984
  0
ARC
  5
483
  8
__-2
  6
DOT
 62
     7
 10
1680.675063679458
 20
-175.9321498728299
 30
0.0
 40
0.999999999999787
 50
135.0000000000035
 51
180.0000000000179
  0
ENDBLK
  5
79
  8
0
  0
BLOCK
  8
0
  2
____-4
 70
     0
 10
0.0
 20
0.0
 30
0.0
  3
____-4
  1

  0
POLYLINE
  5
484
  8
__-2
  6
CONTINUOUS
 62
     7
 66
     1
 10
0.0
 20
0.0
 30
0.0
 70
   129
  0
VERTEX
  5
485
  8
__-2
  6
CONTINUOUS
 62
     7
 10
1649.675063679458
 20
-164.5187135094071
 30
0.0
  0
VERTEX
  5
486
  8
__-2
  6
CONTINUOUS
 62
     7
 10
1319.675063679458
 20
-164.5187135094071
 30
0.0
  0
VERTEX
  5
487
  8
__-2
  6
CONTINUOUS
 62
     7
 10
1319.675063679458
 20
167.981286490593
 30
0.0
  0
VERTEX
  5
488
  8
__-2
  6
CONTINUOUS
 62
     7
 10
1649.675063679458
 20
167.981286490593
 30
0.0
  0
SEQEND
  5
489
  8
__-2
  6
CONTINUOUS
 62
     7
  0
ENDBLK
  5
7C
  8
0
  0
BLOCK
  8
0
  2
____-5
 70
     0
 10
0.0
 20
0.0
 30
0.0
  3
____-5
  1

  0
POLYLINE
  5
48A
  8
__-2
  6
CONTINUOUS
 62
     7
 66
     1
 10
0.0
 20
0.0
 30
0.0
 70
   129
  0
VERTEX
  5
48B
  8
__-2
  6
CONTINUOUS
 62
     7
 10
1671.675063679458
 20
192.981286490593
 30
0.0
  0
VERTEX
  5
48C
  8
__-2
  6
CONTINUOUS
 62
     7
 10
1297.675063679458
 20
192.981286490593
 30
0.0
  0
VERTEX
  5
48D
  8
__-2
  6
CONTINUOUS
 62
     7
 10
1297.675063679458
 20
525.481286490593
 30
0.0
  0
VERTEX
  5
48E
  8
__-2
  6
CONTINUOUS
 62
     7
 10
1671.675063679458
 20
525.481286490593
 30
0.0
  0
SEQEND
  5
48F
  8
__-2
  6
CONTINUOUS
 62
     7
  0
ENDBLK
  5
7F
  8
0
  0
BLOCK
  8
0
  2
____-6
 70
     0
 10
0.0
 20
0.0
 30
0.0
  3
____-6
  1

  0
INSERT
  5
490
  8
__-2
 62
     7
  2
____-4
 10
0.0
 20
0.0
 30
0.0
  0
INSERT
  5
491
  8
__-2
 62
     7
  2
____-5
 10
0.0
 20
0.0
 30
0.0
  0
POLYLINE
  5
492
  8
__-1
  6
CONTINUOUS
 62
     7
 66
     1
 10
0.0
 20
0.0
 30
0.0
 70
   129
  0
VERTEX
  5
493
  8
__-1
  6
CONTINUOUS
 62
     7
 10
1294.675063679458
 20
525.481286490593
 30
0.0
  0
VERTEX
  5
494
  8
__-1
  6
CONTINUOUS
 62
     7
 10
1297.675063679458
 20
525.481286490593
 30
0.0
  0
VERTEX
  5
495
  8
__-1
  6
CONTINUOUS
 62
     7
 10
1297.675063679458
 20
-204.518713509407
 30
0.0
  0
VERTEX
  5
496
  8
__-1
  6
CONTINUOUS
 62
     7
 10
1294.675063679458
 20
-204.518713509407
 30
0.0
  0
SEQEND
  5
497
  8
__-1
  6
CONTINUOUS
 62
     7
  0
POLYLINE
  5
498
  8
__-1
  6
CONTINUOUS
 62
     7
 66
     1
 10
0.0
 20
0.0
 30
0.0
 70
   129
  0
VERTEX
  5
499
  8
__-1
  6
CONTINUOUS
 62
     7
 10
1671.675063679458
 20
525.481286490593
 30
0.0
  0
VERTEX
  5
49A
  8
__-1
  6
CONTINUOUS
 62
     7
 10
1674.675063679458
 20
525.481286490593
 30
0.0
  0
VERTEX
  5
49B
  8
__-1
  6
CONTINUOUS
 62
     7
 10
1674.675063679458
 20
-204.518713509407
 30
0.0
  0
VERTEX
  5
49C
  8
__-1
  6
CONTINUOUS
 62
     7
 10
1671.675063679458
 20
-204.518713509407
 30
0.0
  0
SEQEND
  5
49D
  8
__-1
  6
CONTINUOUS
 62
     7
  0
POLYLINE
  5
49E
  8
__-1
  6
CONTINUOUS
 62
     7
 66
     1
 10
0.0
 20
0.0
 30
0.0
 70
   129
  0
VERTEX
  5
49F
  8
__-1
  6
CONTINUOUS
 62
     7
 10
1269.675063679459
 20
550.481286490593
 30
0.0
  0
VERTEX
  5
4A0
  8
__-1
  6
CONTINUOUS
 62
     7
 10
1269.675063679459
 20
-229.518713509407
 30
0.0
  0
VERTEX
  5
4A1
  8
__-1
  6
CONTINUOUS
 62
     7
 10
1699.675063679458
 20
-229.518713509407
 30
0.0
  0
VERTEX
  5
4A2
  8
__-1
  6
CONTINUOUS
 62
     7
 10
1699.675063679458
 20
550.481286490593
 30
0.0
  0
SEQEND
  5
4A3
  8
__-1
  6
CONTINUOUS
 62
     7
  0
POLYLINE
  5
4A4
  8
__-1
  6
CONTINUOUS
 62
     7
 66
     1
 10
0.0
 20
0.0
 30
0.0
 70
   129
  0
VERTEX
  5
4A5
  8
__-1
  6
CONTINUOUS
 62
     7
 10
1671.675063679458
 20
192.981286490593
 30
0.0
  0
VERTEX
  5
4A6
  8
__-1
  6
CONTINUOUS
 62
     7
 10
1297.675063679458
 20
192.981286490593
 30
0.0
  0
VERTEX
  5
4A7
  8
__-1
  6
CONTINUOUS
 62
     7
 10
1297.675063679458
 20
525.481286490593
 30
0.0
  0
VERTEX
  5
4A8
  8
__-1
  6
CONTINUOUS
 62
     7
 10
1671.675063679458
 20
525.481286490593
 30
0.0
  0
SEQEND
  5
4A9
  8
__-1
  6
CONTINUOUS
 62
     7
  0
LINE
  5
4AA
  8
__-2
 62
     7
 10
1444.136162179458
 20
345.7266554905959
 30
0.0
 11
1499.429694179458
 21
401.0201884905905
 31
0.0
  0
LINE
  5
4AB
  8
__-2
 62
     7
 10
1472.420433179458
 20
317.4423844905955
 30
0.0
 11
1527.713965179458
 21
372.7359174905932
 31
0.0
  0
LINE
  5
4AC
  8
__-2
 62
     7
 10
1406.841382179458
 20
280.1476044905953
 30
0.0
 11
1565.008745179458
 21
438.3149684905907
 31
0.0
  0
LINE
  5
4AD
  8
__-2
 62
     7
 10
1444.136162179458
 20
-11.77334450940407
 30
0.0
 11
1499.429694179458
 21
43.5201884905905
 31
0.0
  0
LINE
  5
4AE
  8
__-2
 62
     7
 10
1472.420433179458
 20
-40.05761550940451
 30
0.0
 11
1527.713965179458
 21
15.23591749059324
 31
0.0
  0
LINE
  5
4AF
  8
__-2
 62
     7
 10
1406.841382179458
 20
-77.35239550940469
 30
0.0
 11
1565.008745179458
 21
80.81496849059067
 31
0.0
  0
LINE
  5
4B0
  8
__-2
  6
DASHED2
 62
     7
 10
1674.675063679458
 20
133.981286490593
 30
0.0
 11
1294.675063679458
 21
133.981286490593
 31
0.0
  0
POLYLINE
  5
4B1
  8
__-1
  6
CONTINUOUS
 62
     7
 66
     1
 10
0.0
 20
0.0
 30
0.0
 70
   129
  0
VERTEX
  5
4B2
  8
__-1
  6
CONTINUOUS
 62
     7
 10
1297.675063679458
 20
192.981286490593
 30
0.0
  0
VERTEX
  5
4B3
  8
__-1
  6
CONTINUOUS
 62
     7
 10
1297.675063679458
 20
-204.518713509407
 30
0.0
  0
VERTEX
  5
4B4
  8
__-1
  6
CONTINUOUS
 62
     7
 10
1671.675063679458
 20
-204.518713509407
 30
0.0
  0
VERTEX
  5
4B5
  8
__-1
  6
CONTINUOUS
 62
     7
 10
1671.675063679458
 20
192.981286490593
 30
0.0
  0
SEQEND
  5
4B6
  8
__-1
  6
CONTINUOUS
 62
     7
  0
POLYLINE
  5
4B7
  8
__-1
  6
CONTINUOUS
 62
     7
 66
     1
 10
0.0
 20
0.0
 30
0.0
 70
   129
  0
VERTEX
  5
4B8
  8
__-1
  6
CONTINUOUS
 62
     7
 10
1649.675063679458
 20
-164.5187135094071
 30
0.0
  0
VERTEX
  5
4B9
  8
__-1
  6
CONTINUOUS
 62
     7
 10
1319.675063679458
 20
-164.5187135094071
 30
0.0
  0
VERTEX
  5
4BA
  8
__-1
  6
CONTINUOUS
 62
     7
 10
1319.675063679458
 20
167.981286490593
 30
0.0
  0
VERTEX
  5
4BB
  8
__-1
  6
CONTINUOUS
 62
     7
 10
1649.675063679458
 20
167.981286490593
 30
0.0
  0
SEQEND
  5
4BC
  8
__-1
  6
CONTINUOUS
 62
     7
  0
LINE
  5
4BD
  8
__-2
  6
CONTINUOUS
 62
     7
 10
1649.675063679458
 20
-189.518713509407
 30
0.0
 11
1319.675063679458
 21
-189.518713509407
 31
0.0
  0
LINE
  5
4BE
  8
__-1
  6
CONTINUOUS
 62
     7
 10
1319.675063679458
 20
-164.5187135094071
 30
0.0
 11
1319.675063679458
 21
-204.518713509407
 31
0.0
  0
LINE
  5
4BF
  8
__-1
  6
CONTINUOUS
 62
     7
 10
1649.675063679458
 20
-164.5187135094071
 30
0.0
 11
1649.675063679458
 21
-204.518713509407
 31
0.0
  0
LINE
  5
4C0
  8
__-2
  6
DOT
 62
     7
 10
1297.675063679458
 20
192.981286490593
 30
0.0
 11
1294.675063679458
 21
192.981286490593
 31
0.0
  0
LINE
  5
4C1
  8
__-2
  6
DOT
 62
     7
 10
1671.675063679458
 20
192.981286490593
 30
0.0
 11
1674.675063679458
 21
192.981286490593
 31
0.0
  0
ENDBLK
  5
82
  8
0
  0
BLOCK
  8
0
  2
____2D
 70
     0
 10
0.0
 20
0.0
 30
0.0
  3
____2D
  1

  0
POLYLINE
  5
4C2
  8
__-2
  6
CONTINUOUS
 62
     7
 66
     1
 10
0.0
 20
0.0
 30
0.0
 70
   129
  0
VERTEX
  5
4C3
  8
__-2
  6
CONTINUOUS
 62
     7
 10
1261.675063679458
 20
550.481286490593
 30
0.0
  0
VERTEX
  5
4C4
  8
__-2
  6
CONTINUOUS
 62
     7
 10
1269.675063679458
 20
550.481286490593
 30
0.0
  0
VERTEX
  5
4C5
  8
__-2
  6
CONTINUOUS
 62
     7
 10
1269.675063679458
 20
-229.518713509407
 30
0.0
  0
VERTEX
  5
4C6
  8
__-2
  6
CONTINUOUS
 62
     7
 10
1261.675063679458
 20
-229.518713509407
 30
0.0
  0
SEQEND
  5
4C7
  8
__-2
  6
CONTINUOUS
 62
     7
  0
POLYLINE
  5
4C8
  8
__-2
  6
CONTINUOUS
 62
     7
 66
     1
 10
0.0
 20
0.0
 30
0.0
 70
   129
  0
VERTEX
  5
4C9
  8
__-2
  6
CONTINUOUS
 62
     7
 10
1699.675063679458
 20
550.481286490593
 30
0.0
  0
VERTEX
  5
4CA
  8
__-2
  6
CONTINUOUS
 62
     7
 10
1707.675063679458
 20
550.481286490593
 30
0.0
  0
VERTEX
  5
4CB
  8
__-2
  6
CONTINUOUS
 62
     7
 10
1707.675063679458
 20
-229.518713509407
 30
0.0
  0
VERTEX
  5
4CC
  8
__-2
  6
CONTINUOUS
 62
     7
 10
1699.675063679458
 20
-229.518713509407
 30
0.0
  0
SEQEND
  5
4CD
  8
__-2
  6
CONTINUOUS
 62
     7
  0
LINE
  5
4CE
  8
__-2
  6
DOT
 62
     7
 10
1274.675063679458
 20
541.239334584855
 30
0.0
 11
1274.675063679458
 21
-179.3541772824672
 31
0.0
  0
LINE
  5
4CF
  8
__-2
  6
DOT
 62
     7
 10
1270.512032526038
 20
529.6020700446761
 30
0.0
 11
1278.724745442198
 21
529.6020700446761
 31
0.0
  0
POLYLINE
  5
4D0
  8
__-2
  6
DOT
 62
     7
 66
     1
 10
0.0
 20
0.0
 30
0.0
 70
   129
  0
VERTEX
  5
4D1
  8
__-2
  6
DOT
 62
     7
 10
1281.075063679458
 20
170.3520685187989
 30
0.0
  0
VERTEX
  5
4D2
  8
__-2
  6
DOT
 62
     7
 10
1281.075063679458
 20
170.3520685187989
 30
0.0
 42
0.4142135622811506
 70
     2
 50
-623737641364.2312
  0
VERTEX
  5
4D3
  8
__-2
  6
DOT
 62
     7
 10
1282.075063679588
 20
171.3520685187989
 30
0.0
  0
VERTEX
  5
4D4
  8
__-2
  6
DOT
 62
     7
 10
1282.075063679588
 20
535.9520685187968
 30
0.0
  0
VERTEX
  5
4D5
  8
__-2
  6
DOT
 62
     7
 10
1267.275063679338
 20
535.9520685187968
 30
0.0
  0
VERTEX
  5
4D6
  8
__-2
  6
DOT
 62
     7
 10
1267.275063679338
 20
171.3520685187989
 30
0.0
  0
VERTEX
  5
4D7
  8
__-2
  6
DOT
 62
     7
 10
1267.275063679338
 20
171.3520685187989
 30
0.0
 42
0.414213562280493
 70
     2
 50
0.0000000128125904
  0
VERTEX
  5
4D8
  8
__-2
  6
DOT
 62
     7
 10
1268.275063679469
 20
170.3520685187989
 30
0.0
  0
SEQEND
  5
4D9
  8
__-2
  6
DOT
 62
     7
  0
POLYLINE
  5
4DA
  8
__-2
  6
DOT
 62
     7
 66
     1
 10
0.0
 20
0.0
 30
0.0
 70
   129
  0
VERTEX
  5
4DB
  8
__-2
  6
DOT
 62
     7
 10
1276.725063679458
 20
529.6020700446761
 30
0.0
  0
VERTEX
  5
4DC
  8
__-2
  6
DOT
 62
     7
 10
1276.715192369136
 20
529.4011349070005
 30
0.0
  0
VERTEX
  5
4DD
  8
__-2
  6
DOT
 62
     7
 10
1276.685673504285
 20
529.202134884543
 30
0.0
  0
VERTEX
  5
4DE
  8
__-2
  6
DOT
 62
     7
 10
1276.636791367709
 20
529.0069864563044
 30
0.0
  0
VERTEX
  5
4DF
  8
__-2
  6
DOT
 62
     7
 10
1276.569016721106
 20
528.8175690083276
 30
0.0
  0
VERTEX
  5
4E0
  8
__-2
  6
DOT
 62
     7
 10
1276.483002271372
 20
528.6357067341827
 30
0.0
  0
VERTEX
  5
4E1
  8
__-2
  6
DOT
 62
     7
 10
1276.379576384679
 20
528.4631510669858
 30
0.0
  0
VERTEX
  5
4E2
  8
__-2
  6
DOT
 62
     7
 10
1276.259735108852
 20
528.3015638121406
 30
0.0
  0
VERTEX
  5
4E3
  8
__-2
  6
DOT
 62
     7
 10
1276.124632580891
 20
528.1525011432435
 30
0.0
  0
VERTEX
  5
4E4
  8
__-2
  6
DOT
 62
     7
 10
1275.975569911994
 20
528.0173986152823
 30
0.0
  0
VERTEX
  5
4E5
  8
__-2
  6
DOT
 62
     7
 10
1275.813982657148
 20
527.8975573394557
 30
0.0
  0
VERTEX
  5
4E6
  8
__-2
  6
DOT
 62
     7
 10
1275.641426989951
 20
527.7941314527618
 30
0.0
  0
VERTEX
  5
4E7
  8
__-2
  6
DOT
 62
     7
 10
1275.459564715807
 20
527.7081170030278
 30
0.0
  0
VERTEX
  5
4E8
  8
__-2
  6
DOT
 62
     7
 10
1275.27014726783
 20
527.6403423564249
 30
0.0
  0
VERTEX
  5
4E9
  8
__-2
  6
DOT
 62
     7
 10
1275.074998839591
 20
527.5914602198493
 30
0.0
  0
VERTEX
  5
4EA
  8
__-2
  6
DOT
 62
     7
 10
1274.875998817134
 20
527.5619413549979
 30
0.0
  0
VERTEX
  5
4EB
  8
__-2
  6
DOT
 62
     7
 10
1274.675063679458
 20
527.5520700446759
 30
0.0
  0
VERTEX
  5
4EC
  8
__-2
  6
DOT
 62
     7
 10
1274.474128541783
 20
527.5619413549979
 30
0.0
  0
VERTEX
  5
4ED
  8
__-2
  6
DOT
 62
     7
 10
1274.275128519325
 20
527.5914602198493
 30
0.0
  0
VERTEX
  5
4EE
  8
__-2
  6
DOT
 62
     7
 10
1274.079980091087
 20
527.6403423564249
 30
0.0
  0
VERTEX
  5
4EF
  8
__-2
  6
DOT
 62
     7
 10
1273.89056264311
 20
527.7081170030278
 30
0.0
  0
VERTEX
  5
4F0
  8
__-2
  6
DOT
 62
     7
 10
1273.708700368965
 20
527.7941314527618
 30
0.0
  0
VERTEX
  5
4F1
  8
__-2
  6
DOT
 62
     7
 10
1273.536144701768
 20
527.8975573394557
 30
0.0
  0
VERTEX
  5
4F2
  8
__-2
  6
DOT
 62
     7
 10
1273.374557446923
 20
528.0173986152823
 30
0.0
  0
VERTEX
  5
4F3
  8
__-2
  6
DOT
 62
     7
 10
1273.225494778026
 20
528.1525011432435
 30
0.0
  0
VERTEX
  5
4F4
  8
__-2
  6
DOT
 62
     7
 10
1273.090392250064
 20
528.3015638121406
 30
0.0
  0
VERTEX
  5
4F5
  8
__-2
  6
DOT
 62
     7
 10
1272.970550974238
 20
528.4631510669858
 30
0.0
  0
VERTEX
  5
4F6
  8
__-2
  6
DOT
 62
     7
 10
1272.867125087544
 20
528.6357067341827
 30
0.0
  0
VERTEX
  5
4F7
  8
__-2
  6
DOT
 62
     7
 10
1272.78111063781
 20
528.8175690083276
 30
0.0
  0
VERTEX
  5
4F8
  8
__-2
  6
DOT
 62
     7
 10
1272.713335991207
 20
529.0069864563044
 30
0.0
  0
VERTEX
  5
4F9
  8
__-2
  6
DOT
 62
     7
 10
1272.664453854631
 20
529.202134884543
 30
0.0
  0
VERTEX
  5
4FA
  8
__-2
  6
DOT
 62
     7
 10
1272.63493498978
 20
529.4011349070005
 30
0.0
  0
VERTEX
  5
4FB
  8
__-2
  6
DOT
 62
     7
 10
1272.625063679458
 20
529.6020700446761
 30
0.0
  0
VERTEX
  5
4FC
  8
__-2
  6
DOT
 62
     7
 10
1272.63493498978
 20
529.8030051823517
 30
0.0
  0
VERTEX
  5
4FD
  8
__-2
  6
DOT
 62
     7
 10
1272.664453854631
 20
530.0020052048092
 30
0.0
  0
VERTEX
  5
4FE
  8
__-2
  6
DOT
 62
     7
 10
1272.713335991207
 20
530.1971536330478
 30
0.0
  0
VERTEX
  5
4FF
  8
__-2
  6
DOT
 62
     7
 10
1272.78111063781
 20
530.3865710810246
 30
0.0
  0
VERTEX
  5
500
  8
__-2
  6
DOT
 62
     7
 10
1272.867125087544
 20
530.5684333551695
 30
0.0
  0
VERTEX
  5
501
  8
__-2
  6
DOT
 62
     7
 10
1272.970550974238
 20
530.7409890223664
 30
0.0
  0
VERTEX
  5
502
  8
__-2
  6
DOT
 62
     7
 10
1273.090392250064
 20
530.9025762772117
 30
0.0
  0
VERTEX
  5
503
  8
__-2
  6
DOT
 62
     7
 10
1273.225494778026
 20
531.0516389461087
 30
0.0
  0
VERTEX
  5
504
  8
__-2
  6
DOT
 62
     7
 10
1273.374557446923
 20
531.1867414740699
 30
0.0
  0
VERTEX
  5
505
  8
__-2
  6
DOT
 62
     7
 10
1273.536144701768
 20
531.3065827498965
 30
0.0
  0
VERTEX
  5
506
  8
__-2
  6
DOT
 62
     7
 10
1273.708700368965
 20
531.4100086365904
 30
0.0
  0
VERTEX
  5
507
  8
__-2
  6
DOT
 62
     7
 10
1273.89056264311
 20
531.4960230863244
 30
0.0
  0
VERTEX
  5
508
  8
__-2
  6
DOT
 62
     7
 10
1274.079980091087
 20
531.5637977329274
 30
0.0
  0
VERTEX
  5
509
  8
__-2
  6
DOT
 62
     7
 10
1274.275128519325
 20
531.6126798695029
 30
0.0
  0
VERTEX
  5
50A
  8
__-2
  6
DOT
 62
     7
 10
1274.474128541783
 20
531.6421987343543
 30
0.0
  0
VERTEX
  5
50B
  8
__-2
  6
DOT
 62
     7
 10
1274.675063679458
 20
531.6520700446763
 30
0.0
  0
VERTEX
  5
50C
  8
__-2
  6
DOT
 62
     7
 10
1274.875998817134
 20
531.6421987343543
 30
0.0
  0
VERTEX
  5
50D
  8
__-2
  6
DOT
 62
     7
 10
1275.074998839591
 20
531.6126798695029
 30
0.0
  0
VERTEX
  5
50E
  8
__-2
  6
DOT
 62
     7
 10
1275.27014726783
 20
531.5637977329274
 30
0.0
  0
VERTEX
  5
50F
  8
__-2
  6
DOT
 62
     7
 10
1275.459564715807
 20
531.4960230863244
 30
0.0
  0
VERTEX
  5
510
  8
__-2
  6
DOT
 62
     7
 10
1275.641426989951
 20
531.4100086365904
 30
0.0
  0
VERTEX
  5
511
  8
__-2
  6
DOT
 62
     7
 10
1275.813982657148
 20
531.3065827498965
 30
0.0
  0
VERTEX
  5
512
  8
__-2
  6
DOT
 62
     7
 10
1275.975569911994
 20
531.1867414740699
 30
0.0
  0
VERTEX
  5
513
  8
__-2
  6
DOT
 62
     7
 10
1276.124632580891
 20
531.0516389461087
 30
0.0
  0
VERTEX
  5
514
  8
__-2
  6
DOT
 62
     7
 10
1276.259735108852
 20
530.9025762772117
 30
0.0
  0
VERTEX
  5
515
  8
__-2
  6
DOT
 62
     7
 10
1276.379576384679
 20
530.7409890223664
 30
0.0
  0
VERTEX
  5
516
  8
__-2
  6
DOT
 62
     7
 10
1276.483002271372
 20
530.5684333551695
 30
0.0
  0
VERTEX
  5
517
  8
__-2
  6
DOT
 62
     7
 10
1276.569016721106
 20
530.3865710810246
 30
0.0
  0
VERTEX
  5
518
  8
__-2
  6
DOT
 62
     7
 10
1276.636791367709
 20
530.1971536330478
 30
0.0
  0
VERTEX
  5
519
  8
__-2
  6
DOT
 62
     7
 10
1276.685673504285
 20
530.0020052048092
 30
0.0
  0
VERTEX
  5
51A
  8
__-2
  6
DOT
 62
     7
 10
1276.715192369136
 20
529.8030051823517
 30
0.0
  0
SEQEND
  5
51B
  8
__-2
  6
DOT
 62
     7
  0
LINE
  5
51C
  8
__-2
  6
DOT
 62
     7
 10
1694.675063679458
 20
541.239334584855
 30
0.0
 11
1694.675063679458
 21
-179.3541772824672
 31
0.0
  0
LINE
  5
51D
  8
__-2
  6
DOT
 62
     7
 10
1698.838094832877
 20
529.6020700446761
 30
0.0
 11
1690.625381916718
 21
529.6020700446761
 31
0.0
  0
LINE
  5
51E
  8
__-2
  6
DOT
 62
     7
 10
1698.838094832877
 20
529.6020700446761
 30
0.0
 11
1690.625381916718
 21
529.6020700446761
 31
0.0
  0
POLYLINE
  5
51F
  8
__-2
  6
DOT
 62
     7
 66
     1
 10
0.0
 20
0.0
 30
0.0
 70
   129
  0
VERTEX
  5
520
  8
__-2
  6
DOT
 62
     7
 10
1687.275063679338
 20
535.9520685187968
 30
0.0
  0
VERTEX
  5
521
  8
__-2
  6
DOT
 62
     7
 10
1687.275063679338
 20
171.3520685187989
 30
0.0
  0
VERTEX
  5
522
  8
__-2
  6
DOT
 62
     7
 10
1687.275063679338
 20
171.3520685187989
 30
0.0
 42
0.4142135622882515
 70
     2
 50
0.0000000117378173
  0
VERTEX
  5
523
  8
__-2
  6
DOT
 62
     7
 10
1688.275063679458
 20
170.3520685187989
 30
0.0
  0
VERTEX
  5
524
  8
__-2
  6
DOT
 62
     7
 10
1701.075063679458
 20
170.3520685187989
 30
0.0
  0
VERTEX
  5
525
  8
__-2
  6
DOT
 62
     7
 10
1701.075063679458
 20
170.3520685187989
 30
0.0
 42
0.41421356237312
 70
     2
 50
3.119036963853517E+17
  0
VERTEX
  5
526
  8
__-2
  6
DOT
 62
     7
 10
1702.075063679458
 20
171.3520685187989
 30
0.0
  0
VERTEX
  5
527
  8
__-2
  6
DOT
 62
     7
 10
1702.075063679589
 20
535.9520685187968
 30
0.0
  0
SEQEND
  5
528
  8
__-2
  6
DOT
 62
     7
  0
POLYLINE
  5
529
  8
__-2
  6
DOT
 62
     7
 66
     1
 10
0.0
 20
0.0
 30
0.0
 70
   129
  0
VERTEX
  5
52A
  8
__-2
  6
DOT
 62
     7
 10
1696.725063679458
 20
529.6020700446761
 30
0.0
  0
VERTEX
  5
52B
  8
__-2
  6
DOT
 62
     7
 10
1696.715192369136
 20
529.4011349070005
 30
0.0
  0
VERTEX
  5
52C
  8
__-2
  6
DOT
 62
     7
 10
1696.685673504285
 20
529.202134884543
 30
0.0
  0
VERTEX
  5
52D
  8
__-2
  6
DOT
 62
     7
 10
1696.636791367709
 20
529.0069864563044
 30
0.0
  0
VERTEX
  5
52E
  8
__-2
  6
DOT
 62
     7
 10
1696.569016721106
 20
528.8175690083276
 30
0.0
  0
VERTEX
  5
52F
  8
__-2
  6
DOT
 62
     7
 10
1696.483002271372
 20
528.6357067341827
 30
0.0
  0
VERTEX
  5
530
  8
__-2
  6
DOT
 62
     7
 10
1696.379576384678
 20
528.4631510669858
 30
0.0
  0
VERTEX
  5
531
  8
__-2
  6
DOT
 62
     7
 10
1696.259735108852
 20
528.3015638121406
 30
0.0
  0
VERTEX
  5
532
  8
__-2
  6
DOT
 62
     7
 10
1696.12463258089
 20
528.1525011432435
 30
0.0
  0
VERTEX
  5
533
  8
__-2
  6
DOT
 62
     7
 10
1695.975569911993
 20
528.0173986152823
 30
0.0
  0
VERTEX
  5
534
  8
__-2
  6
DOT
 62
     7
 10
1695.813982657148
 20
527.8975573394557
 30
0.0
  0
VERTEX
  5
535
  8
__-2
  6
DOT
 62
     7
 10
1695.641426989951
 20
527.7941314527618
 30
0.0
  0
VERTEX
  5
536
  8
__-2
  6
DOT
 62
     7
 10
1695.459564715806
 20
527.7081170030278
 30
0.0
  0
VERTEX
  5
537
  8
__-2
  6
DOT
 62
     7
 10
1695.27014726783
 20
527.6403423564249
 30
0.0
  0
VERTEX
  5
538
  8
__-2
  6
DOT
 62
     7
 10
1695.074998839591
 20
527.5914602198493
 30
0.0
  0
VERTEX
  5
539
  8
__-2
  6
DOT
 62
     7
 10
1694.875998817133
 20
527.5619413549979
 30
0.0
  0
VERTEX
  5
53A
  8
__-2
  6
DOT
 62
     7
 10
1694.675063679458
 20
527.5520700446759
 30
0.0
  0
VERTEX
  5
53B
  8
__-2
  6
DOT
 62
     7
 10
1694.474128541782
 20
527.5619413549979
 30
0.0
  0
VERTEX
  5
53C
  8
__-2
  6
DOT
 62
     7
 10
1694.275128519325
 20
527.5914602198493
 30
0.0
  0
VERTEX
  5
53D
  8
__-2
  6
DOT
 62
     7
 10
1694.079980091086
 20
527.6403423564249
 30
0.0
  0
VERTEX
  5
53E
  8
__-2
  6
DOT
 62
     7
 10
1693.890562643109
 20
527.7081170030278
 30
0.0
  0
VERTEX
  5
53F
  8
__-2
  6
DOT
 62
     7
 10
1693.708700368965
 20
527.7941314527618
 30
0.0
  0
VERTEX
  5
540
  8
__-2
  6
DOT
 62
     7
 10
1693.536144701768
 20
527.8975573394557
 30
0.0
  0
VERTEX
  5
541
  8
__-2
  6
DOT
 62
     7
 10
1693.374557446922
 20
528.0173986152823
 30
0.0
  0
VERTEX
  5
542
  8
__-2
  6
DOT
 62
     7
 10
1693.225494778025
 20
528.1525011432435
 30
0.0
  0
VERTEX
  5
543
  8
__-2
  6
DOT
 62
     7
 10
1693.090392250064
 20
528.3015638121406
 30
0.0
  0
VERTEX
  5
544
  8
__-2
  6
DOT
 62
     7
 10
1692.970550974238
 20
528.4631510669858
 30
0.0
  0
VERTEX
  5
545
  8
__-2
  6
DOT
 62
     7
 10
1692.867125087544
 20
528.6357067341827
 30
0.0
  0
VERTEX
  5
546
  8
__-2
  6
DOT
 62
     7
 10
1692.78111063781
 20
528.8175690083276
 30
0.0
  0
VERTEX
  5
547
  8
__-2
  6
DOT
 62
     7
 10
1692.713335991207
 20
529.0069864563044
 30
0.0
  0
VERTEX
  5
548
  8
__-2
  6
DOT
 62
     7
 10
1692.664453854631
 20
529.202134884543
 30
0.0
  0
VERTEX
  5
549
  8
__-2
  6
DOT
 62
     7
 10
1692.63493498978
 20
529.4011349070005
 30
0.0
  0
VERTEX
  5
54A
  8
__-2
  6
DOT
 62
     7
 10
1692.625063679458
 20
529.6020700446761
 30
0.0
  0
VERTEX
  5
54B
  8
__-2
  6
DOT
 62
     7
 10
1692.63493498978
 20
529.8030051823517
 30
0.0
  0
VERTEX
  5
54C
  8
__-2
  6
DOT
 62
     7
 10
1692.664453854631
 20
530.0020052048092
 30
0.0
  0
VERTEX
  5
54D
  8
__-2
  6
DOT
 62
     7
 10
1692.713335991207
 20
530.1971536330478
 30
0.0
  0
VERTEX
  5
54E
  8
__-2
  6
DOT
 62
     7
 10
1692.78111063781
 20
530.3865710810246
 30
0.0
  0
VERTEX
  5
54F
  8
__-2
  6
DOT
 62
     7
 10
1692.867125087544
 20
530.5684333551695
 30
0.0
  0
VERTEX
  5
550
  8
__-2
  6
DOT
 62
     7
 10
1692.970550974238
 20
530.7409890223664
 30
0.0
  0
VERTEX
  5
551
  8
__-2
  6
DOT
 62
     7
 10
1693.090392250064
 20
530.9025762772117
 30
0.0
  0
VERTEX
  5
552
  8
__-2
  6
DOT
 62
     7
 10
1693.225494778025
 20
531.0516389461087
 30
0.0
  0
VERTEX
  5
553
  8
__-2
  6
DOT
 62
     7
 10
1693.374557446922
 20
531.1867414740699
 30
0.0
  0
VERTEX
  5
554
  8
__-2
  6
DOT
 62
     7
 10
1693.536144701768
 20
531.3065827498965
 30
0.0
  0
VERTEX
  5
555
  8
__-2
  6
DOT
 62
     7
 10
1693.708700368965
 20
531.4100086365904
 30
0.0
  0
VERTEX
  5
556
  8
__-2
  6
DOT
 62
     7
 10
1693.890562643109
 20
531.4960230863244
 30
0.0
  0
VERTEX
  5
557
  8
__-2
  6
DOT
 62
     7
 10
1694.079980091086
 20
531.5637977329274
 30
0.0
  0
VERTEX
  5
558
  8
__-2
  6
DOT
 62
     7
 10
1694.275128519325
 20
531.6126798695029
 30
0.0
  0
VERTEX
  5
559
  8
__-2
  6
DOT
 62
     7
 10
1694.474128541782
 20
531.6421987343543
 30
0.0
  0
VERTEX
  5
55A
  8
__-2
  6
DOT
 62
     7
 10
1694.675063679458
 20
531.6520700446763
 30
0.0
  0
VERTEX
  5
55B
  8
__-2
  6
DOT
 62
     7
 10
1694.875998817133
 20
531.6421987343543
 30
0.0
  0
VERTEX
  5
55C
  8
__-2
  6
DOT
 62
     7
 10
1695.074998839591
 20
531.6126798695029
 30
0.0
  0
VERTEX
  5
55D
  8
__-2
  6
DOT
 62
     7
 10
1695.27014726783
 20
531.5637977329274
 30
0.0
  0
VERTEX
  5
55E
  8
__-2
  6
DOT
 62
     7
 10
1695.459564715806
 20
531.4960230863244
 30
0.0
  0
VERTEX
  5
55F
  8
__-2
  6
DOT
 62
     7
 10
1695.641426989951
 20
531.4100086365904
 30
0.0
  0
VERTEX
  5
560
  8
__-2
  6
DOT
 62
     7
 10
1695.813982657148
 20
531.3065827498965
 30
0.0
  0
VERTEX
  5
561
  8
__-2
  6
DOT
 62
     7
 10
1695.975569911993
 20
531.1867414740699
 30
0.0
  0
VERTEX
  5
562
  8
__-2
  6
DOT
 62
     7
 10
1696.12463258089
 20
531.0516389461087
 30
0.0
  0
VERTEX
  5
563
  8
__-2
  6
DOT
 62
     7
 10
1696.259735108852
 20
530.9025762772117
 30
0.0
  0
VERTEX
  5
564
  8
__-2
  6
DOT
 62
     7
 10
1696.379576384678
 20
530.7409890223664
 30
0.0
  0
VERTEX
  5
565
  8
__-2
  6
DOT
 62
     7
 10
1696.483002271372
 20
530.5684333551695
 30
0.0
  0
VERTEX
  5
566
  8
__-2
  6
DOT
 62
     7
 10
1696.569016721106
 20
530.3865710810246
 30
0.0
  0
VERTEX
  5
567
  8
__-2
  6
DOT
 62
     7
 10
1696.636791367709
 20
530.1971536330478
 30
0.0
  0
VERTEX
  5
568
  8
__-2
  6
DOT
 62
     7
 10
1696.685673504285
 20
530.0020052048092
 30
0.0
  0
VERTEX
  5
569
  8
__-2
  6
DOT
 62
     7
 10
1696.715192369136
 20
529.8030051823517
 30
0.0
  0
SEQEND
  5
56A
  8
__-2
  6
DOT
 62
     7
  0
POLYLINE
  5
56B
  8
__-2
  6
CONTINUOUS
 62
     1
 66
     1
 10
0.0
 20
0.0
 30
0.0
 70
   129
  0
VERTEX
  5
56C
  8
__-2
  6
CONTINUOUS
 62
     1
 10
1292.175063679458
 20
491.4812864905941
 30
0.0
  0
VERTEX
  5
56D
  8
__-2
  6
CONTINUOUS
 62
     1
 10
1294.675063679458
 20
491.4812864905941
 30
0.0
  0
VERTEX
  5
56E
  8
__-2
  6
CONTINUOUS
 62
     1
 10
1294.675063679458
 20
192.981286490593
 30
0.0
  0
VERTEX
  5
56F
  8
__-2
  6
CONTINUOUS
 62
     1
 10
1292.175063679458
 20
192.981286490593
 30
0.0
  0
SEQEND
  5
570
  8
__-2
  6
CONTINUOUS
 62
     1
  0
POLYLINE
  5
571
  8
__-2
  6
CONTINUOUS
 62
     1
 66
     1
 10
0.0
 20
0.0
 30
0.0
 70
   129
  0
VERTEX
  5
572
  8
__-2
  6
CONTINUOUS
 62
     1
 10
1674.675063679458
 20
491.4812864905941
 30
0.0
  0
VERTEX
  5
573
  8
__-2
  6
CONTINUOUS
 62
     1
 10
1677.175063679458
 20
491.4812864905941
 30
0.0
  0
VERTEX
  5
574
  8
__-2
  6
CONTINUOUS
 62
     1
 10
1677.175063679458
 20
192.981286490593
 30
0.0
  0
VERTEX
  5
575
  8
__-2
  6
CONTINUOUS
 62
     1
 10
1674.675063679458
 20
192.981286490593
 30
0.0
  0
SEQEND
  5
576
  8
__-2
  6
CONTINUOUS
 62
     1
  0
INSERT
  5
577
  8
__-1
 62
     7
  2
____
 10
0.0
 20
0.0
 30
0.0
  0
INSERT
  5
578
  8
__-1
 62
     7
  2
____-1
 10
0.0
 20
0.0
 30
0.0
  0
INSERT
  5
579
  8
__-1
 62
     7
  2
____-2
 10
0.0
 20
0.0
 30
0.0
  0
INSERT
  5
57A
  8
__-1
 62
     7
  2
____-3
 10
0.0
 20
0.0
 30
0.0
  0
INSERT
  5
57B
  8
__-1
 62
     7
  2
____-6
 10
0.0
 20
0.0
 30
0.0
  0
POLYLINE
  5
57C
  8
__-1
  6
CONTINUOUS
 62
     7
 66
     1
 10
0.0
 20
0.0
 30
0.0
 70
   129
  0
VERTEX
  5
57D
  8
__-1
  6
CONTINUOUS
 62
     7
 10
1249.675063679458
 20
550.481286490593
 30
0.0
  0
VERTEX
  5
57E
  8
__-1
  6
CONTINUOUS
 62
     7
 10
1261.675063679458
 20
550.481286490593
 30
0.0
  0
VERTEX
  5
57F
  8
__-1
  6
CONTINUOUS
 62
     7
 10
1261.675063679458
 20
-229.518713509407
 30
0.0
  0
VERTEX
  5
580
  8
__-1
  6
CONTINUOUS
 62
     7
 10
1249.675063679458
 20
-229.518713509407
 30
0.0
  0
SEQEND
  5
581
  8
__-1
  6
CONTINUOUS
 62
     7
  0
POLYLINE
  5
582
  8
__-1
  6
CONTINUOUS
 62
     7
 66
     1
 10
0.0
 20
0.0
 30
0.0
 70
   129
  0
VERTEX
  5
583
  8
__-1
  6
CONTINUOUS
 62
     7
 10
1707.675063679458
 20
550.481286490593
 30
0.0
  0
VERTEX
  5
584
  8
__-1
  6
CONTINUOUS
 62
     7
 10
1719.675063679458
 20
550.481286490593
 30
0.0
  0
VERTEX
  5
585
  8
__-1
  6
CONTINUOUS
 62
     7
 10
1719.675063679458
 20
-229.518713509407
 30
0.0
  0
VERTEX
  5
586
  8
__-1
  6
CONTINUOUS
 62
     7
 10
1707.675063679458
 20
-229.518713509407
 30
0.0
  0
SEQEND
  5
587
  8
__-1
  6
CONTINUOUS
 62
     7
  0
ENDBLK
  5
85
  8
0
  0
BLOCK
  8
0
  2
____-7
 70
     0
 10
0.0
 20
0.0
 30
0.0
  3
____-7
  1

  0
TEXT
  5
588
  8
__-1
 62
     7
 10
52.50022836990956
 20
62.93376321162299
 30
0.0
 40
2.124016203703704
  1
380
  7
______MEDIUM
 11
52.50022836990956
 21
65.05777941532669
 31
0.0
 73
     3
  0
ENDBLK
  5
8C
  8
0
  0
BLOCK
  8
0
  2
____-8
 70
     0
 10
0.0
 20
0.0
 30
0.0
  3
____-8
  1

  0
LINE
  5
589
  8
__-1
  6
CONTINUOUS
 62
     7
 10
92.8504725105347
 20
54.91220765606743
 30
0.0
 11
92.8504725105347
 21
60.91220765606743
 31
0.0
  0
LINE
  5
58A
  8
__-1
  6
CONTINUOUS
 62
     7
 10
16.85047251053444
 20
54.91220765606743
 30
0.0
 11
16.85047251053444
 21
60.91220765606743
 31
0.0
  0
LINE
  5
58B
  8
__-1
  6
CONTINUOUS
 62
     7
 10
92.8504725105347
 20
60.91220765606743
 30
0.0
 11
16.85047251053444
 21
60.91220765606743
 31
0.0
  0
CIRCLE
  5
58C
  8
__-1
  6
CONTINUOUS
 62
     7
 10
92.8504725105347
 20
60.91220765606743
 30
0.0
 40
0.2999816894531193
  0
CIRCLE
  5
58D
  8
__-1
  6
CONTINUOUS
 62
     7
 10
16.85047251053444
 20
60.91220765606743
 30
0.0
 40
0.2999816894531264
  0
INSERT
  5
58E
  8
__-1
 62
     7
  2
____-7
 10
0.0
 20
0.0
 30
0.0
  0
ENDBLK
  5
8F
  8
0
  0
BLOCK
  8
0
  2
____-9
 70
     0
 10
0.0
 20
0.0
 30
0.0
  3
____-9
  1

  0
TEXT
  5
58F
  8
__-1
 62
     7
 10
12.7836430834512
 20
62.93376321162299
 30
0.0
 40
2.124016203703704
  1
25
  7
______MEDIUM
 11
12.7836430834512
 21
65.05777941532669
 31
0.0
 73
     3
  0
ENDBLK
  5
92
  8
0
  0
BLOCK
  8
0
  2
____-10
 70
     0
 10
0.0
 20
0.0
 30
0.0
  3
____-10
  1

  0
LINE
  5
590
  8
__-1
  6
CONTINUOUS
 62
     7
 10
11.85047251053462
 20
54.91220765606743
 30
0.0
 11
11.85047251053462
 21
60.91220765606743
 31
0.0
  0
LINE
  5
591
  8
__-1
  6
CONTINUOUS
 62
     7
 10
16.85047251053444
 20
54.91220765606743
 30
0.0
 11
16.85047251053444
 21
60.91220765606743
 31
0.0
  0
LINE
  5
592
  8
__-1
  6
CONTINUOUS
 62
     7
 10
11.85047251053462
 20
60.91220765606743
 30
0.0
 11
16.85047251053444
 21
60.91220765606743
 31
0.0
  0
CIRCLE
  5
593
  8
__-1
  6
CONTINUOUS
 62
     7
 10
11.85047251053462
 20
60.91220765606743
 30
0.0
 40
0.2999816894531246
  0
CIRCLE
  5
594
  8
__-1
  6
CONTINUOUS
 62
     7
 10
16.85047251053444
 20
60.91220765606743
 30
0.0
 40
0.2999816894531264
  0
INSERT
  5
595
  8
__-1
 62
     7
  2
____-9
 10
0.0
 20
0.0
 30
0.0
  0
ENDBLK
  5
95
  8
0
  0
BLOCK
  8
0
  2
____-11
 70
     0
 10
0.0
 20
0.0
 30
0.0
  3
____-11
  1

  0
TEXT
  5
596
  8
__-1
 62
     7
 10
93.78364308345128
 20
62.93376321162299
 30
0.0
 40
2.124016203703704
  1
25
  7
______MEDIUM
 11
93.78364308345128
 21
65.05777941532669
 31
0.0
 73
     3
  0
ENDBLK
  5
98
  8
0
  0
BLOCK
  8
0
  2
____-12
 70
     0
 10
0.0
 20
0.0
 30
0.0
  3
____-12
  1

  0
LINE
  5
597
  8
__-1
  6
CONTINUOUS
 62
     7
 10
92.8504725105347
 20
54.91220765606743
 30
0.0
 11
92.8504725105347
 21
60.91220765606743
 31
0.0
  0
LINE
  5
598
  8
__-1
  6
CONTINUOUS
 62
     7
 10
97.85047251053453
 20
54.91220765606743
 30
0.0
 11
97.85047251053453
 21
60.91220765606743
 31
0.0
  0
LINE
  5
599
  8
__-1
  6
CONTINUOUS
 62
     7
 10
92.8504725105347
 20
60.91220765606743
 30
0.0
 11
97.85047251053453
 21
60.91220765606743
 31
0.0
  0
CIRCLE
  5
59A
  8
__-1
  6
CONTINUOUS
 62
     7
 10
92.8504725105347
 20
60.91220765606743
 30
0.0
 40
0.2999816894531193
  0
CIRCLE
  5
59B
  8
__-1
  6
CONTINUOUS
 62
     7
 10
97.85047251053453
 20
60.91220765606743
 30
0.0
 40
0.2999816894531193
  0
INSERT
  5
59C
  8
__-1
 62
     7
  2
____-11
 10
0.0
 20
0.0
 30
0.0
  0
ENDBLK
  5
9B
  8
0
  0
BLOCK
  8
0
  2
____-13
 70
     0
 10
0.0
 20
0.0
 30
0.0
  3
____-13
  1

  0
TEXT
  5
59D
  8
__-1
 62
     7
 10
98.28364308345118
 20
62.93376321162299
 30
0.0
 40
2.124016203703704
  1
20
  7
______MEDIUM
 11
98.28364308345118
 21
65.05777941532669
 31
0.0
 73
     3
  0
ENDBLK
  5
9E
  8
0
  0
BLOCK
  8
0
  2
____-14
 70
     0
 10
0.0
 20
0.0
 30
0.0
  3
____-14
  1

  0
LINE
  5
59E
  8
__-1
  6
CONTINUOUS
 62
     7
 10
101.8504725105345
 20
54.91220765606743
 30
0.0
 11
101.8504725105345
 21
60.91220765606743
 31
0.0
  0
LINE
  5
59F
  8
__-1
  6
CONTINUOUS
 62
     7
 10
97.85047251053453
 20
54.91220765606743
 30
0.0
 11
97.85047251053453
 21
60.91220765606743
 31
0.0
  0
LINE
  5
5A0
  8
__-1
  6
CONTINUOUS
 62
     7
 10
101.8504725105345
 20
60.91220765606743
 30
0.0
 11
97.85047251053453
 21
60.91220765606743
 31
0.0
  0
CIRCLE
  5
5A1
  8
__-1
  6
CONTINUOUS
 62
     7
 10
101.8504725105345
 20
60.91220765606743
 30
0.0
 40
0.2999816894531193
  0
CIRCLE
  5
5A2
  8
__-1
  6
CONTINUOUS
 62
     7
 10
97.85047251053453
 20
60.91220765606743
 30
0.0
 40
0.2999816894531193
  0
INSERT
  5
5A3
  8
__-1
 62
     7
  2
____-13
 10
0.0
 20
0.0
 30
0.0
  0
ENDBLK
  5
A1
  8
0
  0
BLOCK
  8
0
  2
____-15
 70
     0
 10
0.0
 20
0.0
 30
0.0
  3
____-15
  1

  0
TEXT
  5
5A4
  8
__-1
 62
     7
 10
8.283643083451288
 20
62.93376321162299
 30
0.0
 40
2.124016203703704
  1
20
  7
______MEDIUM
 11
8.283643083451288
 21
65.05777941532669
 31
0.0
 73
     3
  0
ENDBLK
  5
A4
  8
0
  0
BLOCK
  8
0
  2
____-16
 70
     0
 10
0.0
 20
0.0
 30
0.0
  3
____-16
  1

  0
LINE
  5
5A5
  8
__-1
  6
CONTINUOUS
 62
     7
 10
11.85047251053462
 20
54.91220765606743
 30
0.0
 11
11.85047251053462
 21
60.91220765606743
 31
0.0
  0
LINE
  5
5A6
  8
__-1
  6
CONTINUOUS
 62
     7
 10
7.850472510534622
 20
54.91220765606743
 30
0.0
 11
7.850472510534622
 21
60.91220765606743
 31
0.0
  0
LINE
  5
5A7
  8
__-1
  6
CONTINUOUS
 62
     7
 10
11.85047251053462
 20
60.91220765606743
 30
0.0
 11
7.850472510534622
 21
60.91220765606743
 31
0.0
  0
CIRCLE
  5
5A8
  8
__-1
  6
CONTINUOUS
 62
     7
 10
11.85047251053462
 20
60.91220765606743
 30
0.0
 40
0.2999816894531246
  0
CIRCLE
  5
5A9
  8
__-1
  6
CONTINUOUS
 62
     7
 10
7.850472510534622
 20
60.91220765606743
 30
0.0
 40
0.2999816894531251
  0
INSERT
  5
5AA
  8
__-1
 62
     7
  2
____-15
 10
0.0
 20
0.0
 30
0.0
  0
ENDBLK
  5
A7
  8
0
  0
BLOCK
  8
0
  2
____-17
 70
     0
 10
0.0
 20
0.0
 30
0.0
  3
____-17
  1

  0
TEXT
  5
5AB
  8
__-1
 62
     7
 10
-4.171083045021073
 20
46.84537822898409
 30
0.0
 40
2.124016203703704
  1
25
 50
90.0
  7
______MEDIUM
 11
-6.295099248724776
 21
46.84537822898409
 31
0.0
 73
     3
  0
ENDBLK
  5
AA
  8
0
  0
BLOCK
  8
0
  2
____-18
 70
     0
 10
0.0
 20
0.0
 30
0.0
  3
____-18
  1

  0
LINE
  5
5AC
  8
__-1
  6
CONTINUOUS
 62
     7
 10
3.850472510534485
 20
45.91220765606743
 30
0.0
 11
-2.149527489465516
 21
45.91220765606743
 31
0.0
  0
LINE
  5
5AD
  8
__-1
  6
CONTINUOUS
 62
     7
 10
3.850472510534485
 20
50.91220765606743
 30
0.0
 11
-2.149527489465516
 21
50.91220765606743
 31
0.0
  0
LINE
  5
5AE
  8
__-1
  6
CONTINUOUS
 62
     7
 10
-2.149527489465516
 20
45.91220765606743
 30
0.0
 11
-2.149527489465516
 21
50.91220765606743
 31
0.0
  0
CIRCLE
  5
5AF
  8
__-1
  6
CONTINUOUS
 62
     7
 10
-2.149527489465516
 20
45.91220765606743
 30
0.0
 40
0.2999816894531251
  0
CIRCLE
  5
5B0
  8
__-1
  6
CONTINUOUS
 62
     7
 10
-2.149527489465516
 20
50.91220765606743
 30
0.0
 40
0.2999816894531251
  0
INSERT
  5
5B1
  8
__-1
 62
     7
  2
____-17
 10
0.0
 20
0.0
 30
0.0
  0
ENDBLK
  5
AD
  8
0
  0
BLOCK
  8
0
  2
____-19
 70
     0
 10
0.0
 20
0.0
 30
0.0
  3
____-19
  1

  0
TEXT
  5
5B2
  8
__-1
 62
     7
 10
-4.171083045021073
 20
-29.43803648455757
 30
0.0
 40
2.124016203703704
  1
730
 50
90.0
  7
______MEDIUM
 11
-6.295099248724776
 21
-29.43803648455757
 31
0.0
 73
     3
  0
ENDBLK
  5
B0
  8
0
  0
BLOCK
  8
0
  2
____-20
 70
     0
 10
0.0
 20
0.0
 30
0.0
  3
____-20
  1

  0
LINE
  5
5B3
  8
__-1
  6
CONTINUOUS
 62
     7
 10
3.850472510534485
 20
45.91220765606743
 30
0.0
 11
-2.149527489465516
 21
45.91220765606743
 31
0.0
  0
LINE
  5
5B4
  8
__-1
  6
CONTINUOUS
 62
     7
 10
3.850472510534485
 20
-100.0877923439326
 30
0.0
 11
-2.149527489465516
 21
-100.0877923439326
 31
0.0
  0
LINE
  5
5B5
  8
__-1
  6
CONTINUOUS
 62
     7
 10
-2.149527489465516
 20
45.91220765606743
 30
0.0
 11
-2.149527489465516
 21
-100.0877923439326
 31
0.0
  0
CIRCLE
  5
5B6
  8
__-1
  6
CONTINUOUS
 62
     7
 10
-2.149527489465516
 20
45.91220765606743
 30
0.0
 40
0.2999816894531251
  0
CIRCLE
  5
5B7
  8
__-1
  6
CONTINUOUS
 62
     7
 10
-2.149527489465516
 20
-100.0877923439326
 30
0.0
 40
0.2999816894531251
  0
INSERT
  5
5B8
  8
__-1
 62
     7
  2
____-19
 10
0.0
 20
0.0
 30
0.0
  0
ENDBLK
  5
B3
  8
0
  0
BLOCK
  8
0
  2
____-21
 70
     0
 10
0.0
 20
0.0
 30
0.0
  3
____-21
  1

  0
TEXT
  5
5B9
  8
__-1
 62
     7
 10
-4.171083045021073
 20
-104.1546217710159
 30
0.0
 40
2.124016203703704
  1
25
 50
90.0
  7
______MEDIUM
 11
-6.295099248724776
 21
-104.1546217710159
 31
0.0
 73
     3
  0
ENDBLK
  5
B6
  8
0
  0
BLOCK
  8
0
  2
____-22
 70
     0
 10
0.0
 20
0.0
 30
0.0
  3
____-22
  1

  0
LINE
  5
5BA
  8
__-1
  6
CONTINUOUS
 62
     7
 10
3.850472510534485
 20
-105.0877923439326
 30
0.0
 11
-2.149527489465516
 21
-105.0877923439326
 31
0.0
  0
LINE
  5
5BB
  8
__-1
  6
CONTINUOUS
 62
     7
 10
3.850472510534485
 20
-100.0877923439326
 30
0.0
 11
-2.149527489465516
 21
-100.0877923439326
 31
0.0
  0
LINE
  5
5BC
  8
__-1
  6
CONTINUOUS
 62
     7
 10
-2.149527489465516
 20
-105.0877923439326
 30
0.0
 11
-2.149527489465516
 21
-100.0877923439326
 31
0.0
  0
CIRCLE
  5
5BD
  8
__-1
  6
CONTINUOUS
 62
     7
 10
-2.149527489465516
 20
-105.0877923439326
 30
0.0
 40
0.2999816894531251
  0
CIRCLE
  5
5BE
  8
__-1
  6
CONTINUOUS
 62
     7
 10
-2.149527489465516
 20
-100.0877923439326
 30
0.0
 40
0.2999816894531251
  0
INSERT
  5
5BF
  8
__-1
 62
     7
  2
____-21
 10
0.0
 20
0.0
 30
0.0
  0
ENDBLK
  5
B9
  8
0
  0
BLOCK
  8
0
  2
____-23
 70
     0
 10
0.0
 20
0.0
 30
0.0
  3
____-23
  1

  0
TEXT
  5
5C0
  8
__-1
 62
     7
 10
17.78364308345101
 20
-80.68448954058951
 30
0.0
 40
2.124016203703704
  1
25
  7
______MEDIUM
 11
17.78364308345101
 21
-78.5604733368858
 31
0.0
 73
     3
  0
ENDBLK
  5
BC
  8
0
  0
BLOCK
  8
0
  2
____-24
 70
     0
 10
0.0
 20
0.0
 30
0.0
  3
____-24
  1

  0
LINE
  5
5C1
  8
__-1
  6
CONTINUOUS
 62
     7
 10
16.85047251053444
 20
-88.70604509614508
 30
0.0
 11
16.85047251053444
 21
-82.70604509614508
 31
0.0
  0
LINE
  5
5C2
  8
__-1
  6
CONTINUOUS
 62
     7
 10
21.85047251053425
 20
-88.70604509614508
 30
0.0
 11
21.85047251053425
 21
-82.70604509614508
 31
0.0
  0
LINE
  5
5C3
  8
__-1
  6
CONTINUOUS
 62
     7
 10
16.85047251053444
 20
-82.70604509614508
 30
0.0
 11
21.85047251053425
 21
-82.70604509614508
 31
0.0
  0
CIRCLE
  5
5C4
  8
__-1
  6
CONTINUOUS
 62
     7
 10
16.85047251053444
 20
-82.70604509614508
 30
0.0
 40
0.2999816894531264
  0
CIRCLE
  5
5C5
  8
__-1
  6
CONTINUOUS
 62
     7
 10
21.85047251053425
 20
-82.70604509614508
 30
0.0
 40
0.2999816894531264
  0
INSERT
  5
5C6
  8
__-1
 62
     7
  2
____-23
 10
0.0
 20
0.0
 30
0.0
  0
ENDBLK
  5
BF
  8
0
  0
BLOCK
  8
0
  2
____-25
 70
     0
 10
0.0
 20
0.0
 30
0.0
  3
____-25
  1

  0
TEXT
  5
5C7
  8
__-1
 62
     7
 10
88.78364308345128
 20
-80.68448954058951
 30
0.0
 40
2.124016203703704
  1
25
  7
______MEDIUM
 11
88.78364308345128
 21
-78.5604733368858
 31
0.0
 73
     3
  0
ENDBLK
  5
C2
  8
0
  0
BLOCK
  8
0
  2
____-26
 70
     0
 10
0.0
 20
0.0
 30
0.0
  3
____-26
  1

  0
LINE
  5
5C8
  8
__-1
  6
CONTINUOUS
 62
     7
 10
87.8504725105347
 20
-88.70604509614508
 30
0.0
 11
87.8504725105347
 21
-82.70604509614508
 31
0.0
  0
LINE
  5
5C9
  8
__-1
  6
CONTINUOUS
 62
     7
 10
92.85047251053453
 20
-88.70604509614508
 30
0.0
 11
92.85047251053453
 21
-82.70604509614508
 31
0.0
  0
LINE
  5
5CA
  8
__-1
  6
CONTINUOUS
 62
     7
 10
87.8504725105347
 20
-82.70604509614508
 30
0.0
 11
92.85047251053453
 21
-82.70604509614508
 31
0.0
  0
CIRCLE
  5
5CB
  8
__-1
  6
CONTINUOUS
 62
     7
 10
87.8504725105347
 20
-82.70604509614508
 30
0.0
 40
0.2999816894531193
  0
CIRCLE
  5
5CC
  8
__-1
  6
CONTINUOUS
 62
     7
 10
92.85047251053453
 20
-82.70604509614508
 30
0.0
 40
0.2999816894531193
  0
INSERT
  5
5CD
  8
__-1
 62
     7
  2
____-25
 10
0.0
 20
0.0
 30
0.0
  0
ENDBLK
  5
C5
  8
0
  0
BLOCK
  8
0
  2
____-27
 70
     0
 10
0.0
 20
0.0
 30
0.0
  3
____-27
  1

  0
TEXT
  5
5CE
  8
__-1
 62
     7
 10
48.61951474543662
 20
-97.65462177101591
 30
0.0
 40
2.124016203703704
  1
40
 50
90.0
  7
______MEDIUM
 11
46.49549854173292
 21
-97.65462177101591
 31
0.0
 73
     3
  0
ENDBLK
  5
C8
  8
0
  0
BLOCK
  8
0
  2
____-28
 70
     0
 10
0.0
 20
0.0
 30
0.0
  3
____-28
  1

  0
LINE
  5
5CF
  8
__-1
  6
CONTINUOUS
 62
     7
 10
44.64107030099218
 20
-92.08779234393258
 30
0.0
 11
50.64107030099218
 21
-92.08779234393258
 31
0.0
  0
LINE
  5
5D0
  8
__-1
  6
CONTINUOUS
 62
     7
 10
44.64107030099218
 20
-100.0877923439326
 30
0.0
 11
50.64107030099218
 21
-100.0877923439326
 31
0.0
  0
LINE
  5
5D1
  8
__-1
  6
CONTINUOUS
 62
     7
 10
50.64107030099218
 20
-92.08779234393258
 30
0.0
 11
50.64107030099218
 21
-100.0877923439326
 31
0.0
  0
CIRCLE
  5
5D2
  8
__-1
  6
CONTINUOUS
 62
     7
 10
50.64107030099218
 20
-92.08779234393258
 30
0.0
 40
0.2999816894531264
  0
CIRCLE
  5
5D3
  8
__-1
  6
CONTINUOUS
 62
     7
 10
50.64107030099218
 20
-100.0877923439326
 30
0.0
 40
0.2999816894531264
  0
INSERT
  5
5D4
  8
__-1
 62
     7
  2
____-27
 10
0.0
 20
0.0
 30
0.0
  0
ENDBLK
  5
CB
  8
0
  0
BLOCK
  8
0
  2
____-29
 70
     0
 10
0.0
 20
0.0
 30
0.0
  3
____-29
  1

  0
TEXT
  5
5D5
  8
__-1
 62
     7
 10
56.06085382987655
 20
-100.1546217710159
 30
0.0
 40
2.124016203703704
  1
15
 50
90.0
  7
______MEDIUM
 11
53.93683762617285
 21
-100.1546217710159
 31
0.0
 73
     3
  0
ENDBLK
  5
CE
  8
0
  0
BLOCK
  8
0
  2
____-30
 70
     0
 10
0.0
 20
0.0
 30
0.0
  3
____-30
  1

  0
LINE
  5
5D6
  8
__-1
  6
CONTINUOUS
 62
     7
 10
52.08240938543211
 20
-97.08779234393258
 30
0.0
 11
58.08240938543211
 21
-97.08779234393258
 31
0.0
  0
LINE
  5
5D7
  8
__-1
  6
CONTINUOUS
 62
     7
 10
52.08240938543211
 20
-100.0877923439326
 30
0.0
 11
58.08240938543211
 21
-100.0877923439326
 31
0.0
  0
LINE
  5
5D8
  8
__-1
  6
CONTINUOUS
 62
     7
 10
58.08240938543211
 20
-97.08779234393258
 30
0.0
 11
58.08240938543211
 21
-100.0877923439326
 31
0.0
  0
CIRCLE
  5
5D9
  8
__-1
  6
CONTINUOUS
 62
     7
 10
58.08240938543211
 20
-97.08779234393258
 30
0.0
 40
0.2999816894531264
  0
CIRCLE
  5
5DA
  8
__-1
  6
CONTINUOUS
 62
     7
 10
58.08240938543211
 20
-100.0877923439326
 30
0.0
 40
0.2999816894531264
  0
INSERT
  5
5DB
  8
__-1
 62
     7
  2
____-29
 10
0.0
 20
0.0
 30
0.0
  0
ENDBLK
  5
D1
  8
0
  0
BLOCK
  8
0
  2
____-31
 70
     0
 10
0.0
 20
0.0
 30
0.0
  3
____-31
  1

  0
TEXT
  5
5DC
  8
__-1
 62
     7
 10
56.06085382987655
 20
-96.15462177101593
 30
0.0
 40
2.124016203703704
  1
25
 50
90.0
  7
______MEDIUM
 11
53.93683762617285
 21
-96.15462177101593
 31
0.0
 73
     3
  0
ENDBLK
  5
D4
  8
0
  0
BLOCK
  8
0
  2
____-32
 70
     0
 10
0.0
 20
0.0
 30
0.0
  3
____-32
  1

  0
LINE
  5
5DD
  8
__-1
  6
CONTINUOUS
 62
     7
 10
52.08240938543211
 20
-97.08779234393258
 30
0.0
 11
58.08240938543211
 21
-97.08779234393258
 31
0.0
  0
LINE
  5
5DE
  8
__-1
  6
CONTINUOUS
 62
     7
 10
52.08240938543211
 20
-92.0877923439326
 30
0.0
 11
58.08240938543211
 21
-92.0877923439326
 31
0.0
  0
LINE
  5
5DF
  8
__-1
  6
CONTINUOUS
 62
     7
 10
58.08240938543211
 20
-97.08779234393258
 30
0.0
 11
58.08240938543211
 21
-92.0877923439326
 31
0.0
  0
CIRCLE
  5
5E0
  8
__-1
  6
CONTINUOUS
 62
     7
 10
58.08240938543211
 20
-97.08779234393258
 30
0.0
 40
0.2999816894531264
  0
CIRCLE
  5
5E1
  8
__-1
  6
CONTINUOUS
 62
     7
 10
58.08240938543211
 20
-92.0877923439326
 30
0.0
 40
0.2999816894531264
  0
INSERT
  5
5E2
  8
__-1
 62
     7
  2
____-31
 10
0.0
 20
0.0
 30
0.0
  0
ENDBLK
  5
D7
  8
0
  0
BLOCK
  8
0
  2
____-33
 70
     0
 10
0.0
 20
0.0
 30
0.0
  3
____-33
  1

  0
TEXT
  5
5E3
  8
__-1
 62
     7
 10
52.50022836990948
 20
-80.68448954058951
 30
0.0
 40
2.124016203703704
  1
330
  7
______MEDIUM
 11
52.50022836990948
 21
-78.5604733368858
 31
0.0
 73
     3
  0
ENDBLK
  5
DA
  8
0
  0
BLOCK
  8
0
  2
____-34
 70
     0
 10
0.0
 20
0.0
 30
0.0
  3
____-34
  1

  0
LINE
  5
5E4
  8
__-1
  6
CONTINUOUS
 62
     7
 10
87.8504725105347
 20
-88.70604509614508
 30
0.0
 11
87.8504725105347
 21
-82.70604509614508
 31
0.0
  0
LINE
  5
5E5
  8
__-1
  6
CONTINUOUS
 62
     7
 10
21.85047251053425
 20
-88.70604509614508
 30
0.0
 11
21.85047251053425
 21
-82.70604509614508
 31
0.0
  0
LINE
  5
5E6
  8
__-1
  6
CONTINUOUS
 62
     7
 10
87.8504725105347
 20
-82.70604509614508
 30
0.0
 11
21.85047251053425
 21
-82.70604509614508
 31
0.0
  0
CIRCLE
  5
5E7
  8
__-1
  6
CONTINUOUS
 62
     7
 10
87.8504725105347
 20
-82.70604509614508
 30
0.0
 40
0.2999816894531193
  0
CIRCLE
  5
5E8
  8
__-1
  6
CONTINUOUS
 62
     7
 10
21.85047251053425
 20
-82.70604509614508
 30
0.0
 40
0.2999816894531264
  0
INSERT
  5
5E9
  8
__-1
 62
     7
  2
____-33
 10
0.0
 20
0.0
 30
0.0
  0
ENDBLK
  5
DD
  8
0
  0
BLOCK
  8
0
  2
____-35
 70
     0
 10
0.0
 20
0.0
 30
0.0
  3
____-35
  1

  0
TEXT
  5
5EA
  8
__-1
 62
     7
 10
33.14308546305978
 20
-62.33663131962686
 30
0.0
 40
2.124016203703704
  1
332.5
 50
90.0
  7
______MEDIUM
 11
31.01906925935608
 21
-62.33663131962686
 31
0.0
 73
     3
  0
ENDBLK
  5
E0
  8
0
  0
BLOCK
  8
0
  2
____-36
 70
     0
 10
0.0
 20
0.0
 30
0.0
  3
____-36
  1

  0
LINE
  5
5EB
  8
__-1
  6
CONTINUOUS
 62
     7
 10
29.16464101861534
 20
-92.0877923439326
 30
0.0
 11
35.16464101861534
 21
-92.0877923439326
 31
0.0
  0
LINE
  5
5EC
  8
__-1
  6
CONTINUOUS
 62
     7
 10
29.16464101861534
 20
-25.58779234393222
 30
0.0
 11
35.16464101861534
 21
-25.58779234393222
 31
0.0
  0
LINE
  5
5ED
  8
__-1
  6
CONTINUOUS
 62
     7
 10
35.16464101861534
 20
-92.0877923439326
 30
0.0
 11
35.16464101861534
 21
-25.58779234393222
 31
0.0
  0
CIRCLE
  5
5EE
  8
__-1
  6
CONTINUOUS
 62
     7
 10
35.16464101861534
 20
-92.0877923439326
 30
0.0
 40
0.2999816894531264
  0
CIRCLE
  5
5EF
  8
__-1
  6
CONTINUOUS
 62
     7
 10
35.16464101861534
 20
-25.58779234393222
 30
0.0
 40
0.2999816894531264
  0
INSERT
  5
5F0
  8
__-1
 62
     7
  2
____-35
 10
0.0
 20
0.0
 30
0.0
  0
ENDBLK
  5
E3
  8
0
  0
BLOCK
  8
0
  2
____-37
 70
     0
 10
0.0
 20
0.0
 30
0.0
  3
____-37
  1

  0
TEXT
  5
5F1
  8
__-1
 62
     7
 10
33.14308546305978
 20
9.163368680373166
 30
0.0
 40
2.124016203703704
  1
332.5
 50
90.0
  7
______MEDIUM
 11
31.01906925935608
 21
9.163368680373166
 31
0.0
 73
     3
  0
ENDBLK
  5
E6
  8
0
  0
BLOCK
  8
0
  2
____-38
 70
     0
 10
0.0
 20
0.0
 30
0.0
  3
____-38
  1

  0
LINE
  5
5F2
  8
__-1
  6
CONTINUOUS
 62
     7
 10
29.16464101861534
 20
-20.58779234393257
 30
0.0
 11
35.16464101861534
 21
-20.58779234393257
 31
0.0
  0
LINE
  5
5F3
  8
__-1
  6
CONTINUOUS
 62
     7
 10
29.16464101861534
 20
45.91220765606779
 30
0.0
 11
35.16464101861534
 21
45.91220765606779
 31
0.0
  0
LINE
  5
5F4
  8
__-1
  6
CONTINUOUS
 62
     7
 10
35.16464101861534
 20
-20.58779234393257
 30
0.0
 11
35.16464101861534
 21
45.91220765606779
 31
0.0
  0
CIRCLE
  5
5F5
  8
__-1
  6
CONTINUOUS
 62
     7
 10
35.16464101861534
 20
-20.58779234393257
 30
0.0
 40
0.2999816894531264
  0
CIRCLE
  5
5F6
  8
__-1
  6
CONTINUOUS
 62
     7
 10
35.16464101861534
 20
45.91220765606779
 30
0.0
 40
0.2999816894531264
  0
INSERT
  5
5F7
  8
__-1
 62
     7
  2
____-37
 10
0.0
 20
0.0
 30
0.0
  0
ENDBLK
  5
E9
  8
0
  0
BLOCK
  8
0
  2
____-39
 70
     0
 10
0.0
 20
0.0
 30
0.0
  3
____-39
  1

  0
TEXT
  5
5F8
  8
__-1
 62
     7
 10
56.06085382987655
 20
-24.65462177101591
 30
0.0
 40
2.124016203703704
  1
25
 50
90.0
  7
______MEDIUM
 11
53.93683762617285
 21
-24.65462177101591
 31
0.0
 73
     3
  0
ENDBLK
  5
EC
  8
0
  0
BLOCK
  8
0
  2
____-40
 70
     0
 10
0.0
 20
0.0
 30
0.0
  3
____-40
  1

  0
LINE
  5
5F9
  8
__-1
  6
CONTINUOUS
 62
     7
 10
52.08240938543211
 20
-25.58779234393256
 30
0.0
 11
58.08240938543211
 21
-25.58779234393256
 31
0.0
  0
LINE
  5
5FA
  8
__-1
  6
CONTINUOUS
 62
     7
 10
52.08240938543211
 20
-20.58779234393259
 30
0.0
 11
58.08240938543211
 21
-20.58779234393259
 31
0.0
  0
LINE
  5
5FB
  8
__-1
  6
CONTINUOUS
 62
     7
 10
58.08240938543211
 20
-25.58779234393256
 30
0.0
 11
58.08240938543211
 21
-20.58779234393259
 31
0.0
  0
CIRCLE
  5
5FC
  8
__-1
  6
CONTINUOUS
 62
     7
 10
58.08240938543211
 20
-25.58779234393256
 30
0.0
 40
0.2999816894531264
  0
CIRCLE
  5
5FD
  8
__-1
  6
CONTINUOUS
 62
     7
 10
58.08240938543211
 20
-20.58779234393259
 30
0.0
 40
0.2999816894531264
  0
INSERT
  5
5FE
  8
__-1
 62
     7
  2
____-39
 10
0.0
 20
0.0
 30
0.0
  0
ENDBLK
  5
EF
  8
0
  0
BLOCK
  8
0
  2
____-41
 70
     0
 10
0.0
 20
0.0
 30
0.0
  3
____-41
  1

  0
TEXT
  5
5FF
  8
__-1
 62
     7
 10
109.8289169549791
 20
-34.63223678837704
 30
0.0
 40
2.124016203703704
  1
引き残し
 50
90.0
  7
______MEDIUM
 11
107.7049007512754
 21
-34.63223678837704
 31
0.0
 73
     3
  0
TEXT
  5
600
  8
__-1
 62
     7
 10
114.9444725105347
 20
-44.51001456615481
 30
0.0
 40
2.124016203703704
  1
※メーカー基準に基づく
 50
90.0
  7
______MEDIUM
 11
112.820456306831
 21
-44.51001456615481
 31
0.0
 73
     3
  0
ENDBLK
  5
F2
  8
0
  0
BLOCK
  8
0
  2
____-42
 70
     0
 10
0.0
 20
0.0
 30
0.0
  3
____-42
  1

  0
LINE
  5
601
  8
__-1
  6
CONTINUOUS
 62
     7
 10
105.8504725105347
 20
-25.58779234393259
 30
0.0
 11
111.8504725105347
 21
-25.58779234393259
 31
0.0
  0
LINE
  5
602
  8
__-1
  6
CONTINUOUS
 62
     7
 10
105.8504725105347
 20
-32.38779234393259
 30
0.0
 11
111.8504725105347
 21
-32.38779234393259
 31
0.0
  0
LINE
  5
603
  8
__-1
  6
CONTINUOUS
 62
     7
 10
111.8504725105347
 20
-25.58779234393259
 30
0.0
 11
111.8504725105347
 21
-32.38779234393259
 31
0.0
  0
CIRCLE
  5
604
  8
__-1
  6
CONTINUOUS
 62
     7
 10
111.8504725105347
 20
-25.58779234393259
 30
0.0
 40
0.2999816894531193
  0
CIRCLE
  5
605
  8
__-1
  6
CONTINUOUS
 62
     7
 10
111.8504725105347
 20
-32.38779234393259
 30
0.0
 40
0.2999816894531193
  0
INSERT
  5
606
  8
__-1
 62
     7
  2
____-41
 10
0.0
 20
0.0
 30
0.0
  0
ENDBLK
  5
F5
  8
0
  0
BLOCK
  8
0
  2
____-43
 70
     0
 10
0.0
 20
0.0
 30
0.0
  3
____-43
  1

  0
INSERT
  5
607
  8
__-1
 62
     7
  2
____-8
 10
0.0
 20
0.0
 30
0.0
  0
INSERT
  5
608
  8
__-1
 62
     7
  2
____-10
 10
0.0
 20
0.0
 30
0.0
  0
INSERT
  5
609
  8
__-1
 62
     7
  2
____-12
 10
0.0
 20
0.0
 30
0.0
  0
INSERT
  5
60A
  8
__-1
 62
     7
  2
____-14
 10
0.0
 20
0.0
 30
0.0
  0
INSERT
  5
60B
  8
__-1
 62
     7
  2
____-16
 10
0.0
 20
0.0
 30
0.0
  0
INSERT
  5
60C
  8
__-1
 62
     7
  2
____-18
 10
0.0
 20
0.0
 30
0.0
  0
INSERT
  5
60D
  8
__-1
 62
     7
  2
____-20
 10
0.0
 20
0.0
 30
0.0
  0
INSERT
  5
60E
  8
__-1
 62
     7
  2
____-22
 10
0.0
 20
0.0
 30
0.0
  0
INSERT
  5
60F
  8
__-1
 62
     7
  2
____-24
 10
0.0
 20
0.0
 30
0.0
  0
INSERT
  5
610
  8
__-1
 62
     7
  2
____-26
 10
0.0
 20
0.0
 30
0.0
  0
INSERT
  5
611
  8
__-1
 62
     7
  2
____-28
 10
0.0
 20
0.0
 30
0.0
  0
INSERT
  5
612
  8
__-1
 62
     7
  2
____-30
 10
0.0
 20
0.0
 30
0.0
  0
INSERT
  5
613
  8
__-1
 62
     7
  2
____-32
 10
0.0
 20
0.0
 30
0.0
  0
INSERT
  5
614
  8
__-1
 62
     7
  2
____-34
 10
0.0
 20
0.0
 30
0.0
  0
INSERT
  5
615
  8
__-1
 62
     7
  2
____-36
 10
0.0
 20
0.0
 30
0.0
  0
INSERT
  5
616
  8
__-1
 62
     7
  2
____-38
 10
0.0
 20
0.0
 30
0.0
  0
INSERT
  5
617
  8
__-1
 62
     7
  2
____-40
 10
0.0
 20
0.0
 30
0.0
  0
INSERT
  5
618
  8
__-1
 62
     7
  2
____-42
 10
0.0
 20
0.0
 30
0.0
  0
TEXT
  5
619
  8
__-1
 62
     7
 10
52.90939178136803
 20
12.12598543384519
 30
0.0
 40
2.124016203703704
  1
FIX
  7
______MEDIUM
 11
52.90939178136803
 21
14.2500016375489
 31
0.0
 73
     3
  0
TEXT
  5
61A
  8
__-1
 62
     7
 10
49.45602806609027
 20
-59.37401456615482
 30
0.0
 40
2.124016203703704
  1
可動障子
  7
______MEDIUM
 11
49.45602806609027
 21
-57.24999836245112
 31
0.0
 73
     3
  0
ENDBLK
  5
F8
  8
0
  0
BLOCK
  8
0
  2
____-44
 70
     0
 10
0.0
 20
0.0
 30
0.0
  3
____-44
  1

  0
LINE
  5
61B
  8
__-1
  6
CONTINUOUS
 62
     7
 10
2073.344377772347
 20
-171.518713509407
 30
0.0
 11
2078.344377772347
 21
-174.518713509407
 31
0.0
  0
LINE
  5
61C
  8
__-1
  6
CONTINUOUS
 62
     7
 10
2073.344377772347
 20
-174.518713509407
 30
0.0
 11
2078.344377772347
 21
-171.518713509407
 31
0.0
  0
ENDBLK
  5
FB
  8
0
  0
BLOCK
  8
0
  2
____-45
 70
     0
 10
0.0
 20
0.0
 30
0.0
  3
____-45
  1

  0
POLYLINE
  5
61D
  8
__-2
  6
CONTINUOUS
 62
     7
 66
     1
 10
0.0
 20
0.0
 30
0.0
 70
   129
  0
VERTEX
  5
61E
  8
__-2
  6
CONTINUOUS
 62
     7
 10
2078.344377772347
 20
-171.518713509407
 30
0.0
  0
VERTEX
  5
61F
  8
__-2
  6
CONTINUOUS
 62
     7
 10
2078.344377772347
 20
-174.518713509407
 30
0.0
  0
VERTEX
  5
620
  8
__-2
  6
CONTINUOUS
 62
     7
 10
2073.344377772347
 20
-174.518713509407
 30
0.0
  0
VERTEX
  5
621
  8
__-2
  6
CONTINUOUS
 62
     7
 10
2073.344377772347
 20
-171.518713509407
 30
0.0
  0
SEQEND
  5
622
  8
__-2
  6
CONTINUOUS
 62
     7
  0
INSERT
  5
623
  8
__-1
 62
     7
  2
____-44
 10
0.0
 20
0.0
 30
0.0
  0
ENDBLK
  5
FE
  8
0
  0
BLOCK
  8
0
  2
____-46
 70
     0
 10
0.0
 20
0.0
 30
0.0
  3
____-46
  1

  0
LINE
  5
624
  8
__-1
  6
CONTINUOUS
 62
     7
 10
2101.844377772347
 20
535.481286490593
 30
0.0
 11
2105.844377772347
 21
532.481286490593
 31
0.0
  0
LINE
  5
625
  8
__-1
  6
CONTINUOUS
 62
     7
 10
2101.844377772347
 20
532.481286490593
 30
0.0
 11
2105.844377772347
 21
535.481286490593
 31
0.0
  0
ENDBLK
  5
101
  8
0
  0
BLOCK
  8
0
  2
____-47
 70
     0
 10
0.0
 20
0.0
 30
0.0
  3
____-47
  1

  0
POLYLINE
  5
626
  8
__-2
  6
CONTINUOUS
 62
     7
 66
     1
 10
0.0
 20
0.0
 30
0.0
 70
   129
  0
VERTEX
  5
627
  8
__-2
  6
CONTINUOUS
 62
     7
 10
2105.844377772347
 20
535.481286490593
 30
0.0
  0
VERTEX
  5
628
  8
__-2
  6
CONTINUOUS
 62
     7
 10
2105.844377772347
 20
532.481286490593
 30
0.0
  0
VERTEX
  5
629
  8
__-2
  6
CONTINUOUS
 62
     7
 10
2101.844377772347
 20
532.481286490593
 30
0.0
  0
VERTEX
  5
62A
  8
__-2
  6
CONTINUOUS
 62
     7
 10
2101.844377772347
 20
535.481286490593
 30
0.0
  0
SEQEND
  5
62B
  8
__-2
  6
CONTINUOUS
 62
     7
  0
INSERT
  5
62C
  8
__-1
 62
     7
  2
____-46
 10
0.0
 20
0.0
 30
0.0
  0
ENDBLK
  5
104
  8
0
  0
BLOCK
  8
0
  2
____-48
 70
     0
 10
0.0
 20
0.0
 30
0.0
  3
____-48
  1

  0
LINE
  5
62D
  8
__-1
  6
CONTINUOUS
 62
     7
 10
2101.844377772347
 20
185.981286490593
 30
0.0
 11
2105.844377772347
 21
182.981286490593
 31
0.0
  0
LINE
  5
62E
  8
__-1
  6
CONTINUOUS
 62
     7
 10
2101.844377772347
 20
182.981286490593
 30
0.0
 11
2105.844377772347
 21
185.981286490593
 31
0.0
  0
ENDBLK
  5
107
  8
0
  0
BLOCK
  8
0
  2
____-49
 70
     0
 10
0.0
 20
0.0
 30
0.0
  3
____-49
  1

  0
POLYLINE
  5
62F
  8
__-2
  6
CONTINUOUS
 62
     7
 66
     1
 10
0.0
 20
0.0
 30
0.0
 70
   129
  0
VERTEX
  5
630
  8
__-2
  6
CONTINUOUS
 62
     7
 10
2105.844377772347
 20
185.981286490593
 30
0.0
  0
VERTEX
  5
631
  8
__-2
  6
CONTINUOUS
 62
     7
 10
2105.844377772347
 20
182.981286490593
 30
0.0
  0
VERTEX
  5
632
  8
__-2
  6
CONTINUOUS
 62
     7
 10
2101.844377772347
 20
182.981286490593
 30
0.0
  0
VERTEX
  5
633
  8
__-2
  6
CONTINUOUS
 62
     7
 10
2101.844377772347
 20
185.981286490593
 30
0.0
  0
SEQEND
  5
634
  8
__-2
  6
CONTINUOUS
 62
     7
  0
INSERT
  5
635
  8
__-1
 62
     7
  2
____-48
 10
0.0
 20
0.0
 30
0.0
  0
ENDBLK
  5
10A
  8
0
  0
BLOCK
  8
0
  2
____-50
 70
     0
 10
0.0
 20
0.0
 30
0.0
  3
____-50
  1

  0
LINE
  5
636
  8
__-1
  6
CONTINUOUS
 62
     7
 10
2073.344377772347
 20
177.981286490593
 30
0.0
 11
2078.344377772347
 21
174.981286490593
 31
0.0
  0
LINE
  5
637
  8
__-1
  6
CONTINUOUS
 62
     7
 10
2073.344377772347
 20
174.981286490593
 30
0.0
 11
2078.344377772347
 21
177.981286490593
 31
0.0
  0
ENDBLK
  5
10D
  8
0
  0
BLOCK
  8
0
  2
____-51
 70
     0
 10
0.0
 20
0.0
 30
0.0
  3
____-51
  1

  0
POLYLINE
  5
638
  8
__-2
  6
CONTINUOUS
 62
     7
 66
     1
 10
0.0
 20
0.0
 30
0.0
 70
   129
  0
VERTEX
  5
639
  8
__-2
  6
CONTINUOUS
 62
     7
 10
2078.344377772347
 20
177.981286490593
 30
0.0
  0
VERTEX
  5
63A
  8
__-2
  6
CONTINUOUS
 62
     7
 10
2078.344377772347
 20
174.981286490593
 30
0.0
  0
VERTEX
  5
63B
  8
__-2
  6
CONTINUOUS
 62
     7
 10
2073.344377772347
 20
174.981286490593
 30
0.0
  0
VERTEX
  5
63C
  8
__-2
  6
CONTINUOUS
 62
     7
 10
2073.344377772347
 20
177.981286490593
 30
0.0
  0
SEQEND
  5
63D
  8
__-2
  6
CONTINUOUS
 62
     7
  0
INSERT
  5
63E
  8
__-1
 62
     7
  2
____-50
 10
0.0
 20
0.0
 30
0.0
  0
ENDBLK
  5
110
  8
0
  0
BLOCK
  8
0
  2
____-52
 70
     0
 10
0.0
 20
0.0
 30
0.0
  3
____-52
  1

  0
POLYLINE
  5
63F
  8
__-2
  6
CONTINUOUS
 62
     7
 66
     1
 10
0.0
 20
0.0
 30
0.0
 70
   129
  0
VERTEX
  5
640
  8
__-2
  6
CONTINUOUS
 62
     7
 10
2105.844377772347
 20
185.981286490593
 30
0.0
  0
VERTEX
  5
641
  8
__-2
  6
CONTINUOUS
 62
     7
 10
2101.844377772347
 20
185.981286490593
 30
0.0
  0
VERTEX
  5
642
  8
__-2
  6
CONTINUOUS
 62
     7
 10
2101.844377772347
 20
532.481286490593
 30
0.0
  0
VERTEX
  5
643
  8
__-2
  6
CONTINUOUS
 62
     7
 10
2105.844377772347
 20
532.481286490593
 30
0.0
  0
SEQEND
  5
644
  8
__-2
  6
CONTINUOUS
 62
     7
  0
ENDBLK
  5
113
  8
0
  0
BLOCK
  8
0
  2
____-53
 70
     0
 10
0.0
 20
0.0
 30
0.0
  3
____-53
  1

  0
POLYLINE
  5
645
  8
__-2
  6
CONTINUOUS
 62
     7
 66
     1
 10
0.0
 20
0.0
 30
0.0
 70
   129
  0
VERTEX
  5
646
  8
__-2
  6
CONTINUOUS
 62
     7
 10
2078.344377772347
 20
-171.518713509407
 30
0.0
  0
VERTEX
  5
647
  8
__-2
  6
CONTINUOUS
 62
     7
 10
2073.344377772347
 20
-171.518713509407
 30
0.0
  0
VERTEX
  5
648
  8
__-2
  6
CONTINUOUS
 62
     7
 10
2073.344377772347
 20
174.981286490593
 30
0.0
  0
VERTEX
  5
649
  8
__-2
  6
CONTINUOUS
 62
     7
 10
2078.344377772347
 20
174.981286490593
 30
0.0
  0
SEQEND
  5
64A
  8
__-2
  6
CONTINUOUS
 62
     7
  0
ENDBLK
  5
116
  8
0
  0
BLOCK
  8
0
  2
____-54
 70
     0
 10
0.0
 20
0.0
 30
0.0
  3
____-54
  1

  0
LINE
  5
64B
  8
__-2
  6
CONTINUOUS
 62
     7
 10
2061.844377772347
 20
-204.518713509407
 30
0.0
 11
2061.844377772347
 21
167.981286490593
 31
0.0
  0
LINE
  5
64C
  8
__-2
  6
CONTINUOUS
 62
     7
 10
2089.844377772347
 20
-204.518713509407
 30
0.0
 11
2089.844377772347
 21
167.981286490593
 31
0.0
  0
POLYLINE
  5
64D
  8
__-2
  6
CONTINUOUS
 62
     7
 66
     1
 10
0.0
 20
0.0
 30
0.0
 70
   129
  0
VERTEX
  5
64E
  8
__-2
  6
CONTINUOUS
 62
     7
 10
2091.344377772347
 20
525.3214736482728
 30
0.0
  0
VERTEX
  5
64F
  8
__-2
  6
CONTINUOUS
 62
     7
 10
2100.844377772347
 20
525.3214736482728
 30
0.0
  0
VERTEX
  5
650
  8
__-2
  6
CONTINUOUS
 62
     7
 10
2100.844377772347
 20
192.981286490593
 30
0.0
  0
VERTEX
  5
651
  8
__-2
  6
CONTINUOUS
 62
     7
 10
2091.344377772347
 20
192.981286490593
 30
0.0
  0
SEQEND
  5
652
  8
__-2
  6
CONTINUOUS
 62
     7
  0
INSERT
  5
653
  8
__-1
 62
     7
  2
____-45
 10
0.0
 20
0.0
 30
0.0
  0
POLYLINE
  5
654
  8
__-1
  6
CONTINUOUS
 62
     7
 66
     1
 10
0.0
 20
0.0
 30
0.0
 70
   129
  0
VERTEX
  5
655
  8
__-1
  6
CONTINUOUS
 62
     7
 10
2066.844377772347
 20
-204.518713509407
 30
0.0
  0
VERTEX
  5
656
  8
__-1
  6
CONTINUOUS
 62
     7
 10
2084.844377772347
 20
-204.518713509407
 30
0.0
  0
VERTEX
  5
657
  8
__-1
  6
CONTINUOUS
 62
     7
 10
2084.844377772347
 20
-189.518713509407
 30
0.0
  0
VERTEX
  5
658
  8
__-1
  6
CONTINUOUS
 62
     7
 10
2089.844377772347
 20
-189.518713509407
 30
0.0
  0
VERTEX
  5
659
  8
__-1
  6
CONTINUOUS
 62
     7
 10
2089.844377772347
 20
-164.518713509407
 30
0.0
  0
VERTEX
  5
65A
  8
__-1
  6
CONTINUOUS
 62
     7
 10
2079.344377772347
 20
-164.518713509407
 30
0.0
  0
VERTEX
  5
65B
  8
__-1
  6
CONTINUOUS
 62
     7
 10
2079.344377772347
 20
-174.518713509407
 30
0.0
  0
VERTEX
  5
65C
  8
__-1
  6
CONTINUOUS
 62
     7
 10
2072.344377772347
 20
-174.518713509407
 30
0.0
  0
VERTEX
  5
65D
  8
__-1
  6
CONTINUOUS
 62
     7
 10
2072.344377772347
 20
-164.518713509407
 30
0.0
  0
VERTEX
  5
65E
  8
__-1
  6
CONTINUOUS
 62
     7
 10
2061.844377772347
 20
-164.518713509407
 30
0.0
  0
VERTEX
  5
65F
  8
__-1
  6
CONTINUOUS
 62
     7
 10
2061.844377772347
 20
-189.518713509407
 30
0.0
  0
VERTEX
  5
660
  8
__-1
  6
CONTINUOUS
 62
     7
 10
2066.844377772347
 20
-189.518713509407
 30
0.0
  0
SEQEND
  5
661
  8
__-1
  6
CONTINUOUS
 62
     7
  0
POLYLINE
  5
662
  8
__-1
  6
CONTINUOUS
 62
     7
 66
     1
 10
0.0
 20
0.0
 30
0.0
 70
   129
  0
VERTEX
  5
663
  8
__-1
  6
CONTINUOUS
 62
     7
 10
2031.344377772347
 20
550.4812864905931
 30
0.0
  0
VERTEX
  5
664
  8
__-1
  6
CONTINUOUS
 62
     7
 10
2121.344377772347
 20
550.4812864905931
 30
0.0
  0
VERTEX
  5
665
  8
__-1
  6
CONTINUOUS
 62
     7
 10
2121.344377772347
 20
-229.518713509407
 30
0.0
  0
VERTEX
  5
666
  8
__-1
  6
CONTINUOUS
 62
     7
 10
2031.344377772347
 20
-229.518713509407
 30
0.0
  0
SEQEND
  5
667
  8
__-1
  6
CONTINUOUS
 62
     7
  0
POLYLINE
  5
668
  8
__-1
  6
CONTINUOUS
 62
     7
 66
     1
 10
0.0
 20
0.0
 30
0.0
 70
   129
  0
VERTEX
  5
669
  8
__-1
  6
CONTINUOUS
 62
     7
 10
2121.344377772347
 20
525.481286490593
 30
0.0
  0
VERTEX
  5
66A
  8
__-1
  6
CONTINUOUS
 62
     7
 10
2121.344377772347
 20
550.481286490593
 30
0.0
  0
VERTEX
  5
66B
  8
__-1
  6
CONTINUOUS
 62
     7
 10
2031.344377772347
 20
550.481286490593
 30
0.0
  0
VERTEX
  5
66C
  8
__-1
  6
CONTINUOUS
 62
     7
 10
2031.344377772347
 20
525.481286490593
 30
0.0
  0
VERTEX
  5
66D
  8
__-1
  6
CONTINUOUS
 62
     7
 10
2100.844377772347
 20
525.481286490593
 30
0.0
  0
VERTEX
  5
66E
  8
__-1
  6
CONTINUOUS
 62
     7
 10
2100.844377772347
 20
535.481286490593
 30
0.0
  0
VERTEX
  5
66F
  8
__-1
  6
CONTINUOUS
 62
     7
 10
2106.844377772347
 20
535.481286490593
 30
0.0
  0
VERTEX
  5
670
  8
__-1
  6
CONTINUOUS
 62
     7
 10
2106.844377772347
 20
525.481286490593
 30
0.0
  0
SEQEND
  5
671
  8
__-1
  6
CONTINUOUS
 62
     7
  0
LINE
  5
672
  8
__-2
  6
CONTINUOUS
 62
     7
 10
2062.844377772347
 20
192.981286490593
 30
0.0
 11
2062.844377772347
 21
491.4812864905921
 31
0.0
  0
LINE
  5
673
  8
__-2
  6
CONTINUOUS
 62
     7
 10
2088.844377772347
 20
192.981286490593
 30
0.0
 11
2088.844377772347
 21
491.481286490593
 31
0.0
  0
POLYLINE
  5
674
  8
__-1
  6
CONTINUOUS
 62
     7
 66
     1
 10
0.0
 20
0.0
 30
0.0
 70
   129
  0
VERTEX
  5
675
  8
__-1
  6
CONTINUOUS
 62
     7
 10
2031.344377772347
 20
-229.518713509407
 30
0.0
  0
VERTEX
  5
676
  8
__-1
  6
CONTINUOUS
 62
     7
 10
2121.344377772347
 20
-229.518713509407
 30
0.0
  0
VERTEX
  5
677
  8
__-1
  6
CONTINUOUS
 62
     7
 10
2121.344377772347
 20
-204.518713509407
 30
0.0
  0
VERTEX
  5
678
  8
__-1
  6
CONTINUOUS
 62
     7
 10
2031.344377772347
 20
-204.518713509407
 30
0.0
  0
SEQEND
  5
679
  8
__-1
  6
CONTINUOUS
 62
     7
  0
POLYLINE
  5
67A
  8
__-1
  6
CONTINUOUS
 62
     7
 66
     1
 10
0.0
 20
0.0
 30
0.0
 70
   129
  0
VERTEX
  5
67B
  8
__-1
  6
CONTINUOUS
 62
     7
 10
2061.844377772347
 20
192.981286490593
 30
0.0
  0
VERTEX
  5
67C
  8
__-1
  6
CONTINUOUS
 62
     7
 10
2061.844377772347
 20
167.981286490593
 30
0.0
  0
VERTEX
  5
67D
  8
__-1
  6
CONTINUOUS
 62
     7
 10
2072.344377772347
 20
167.981286490593
 30
0.0
  0
VERTEX
  5
67E
  8
__-1
  6
CONTINUOUS
 62
     7
 10
2072.344377772347
 20
177.981286490593
 30
0.0
  0
VERTEX
  5
67F
  8
__-1
  6
CONTINUOUS
 62
     7
 10
2079.344377772347
 20
177.981286490593
 30
0.0
  0
VERTEX
  5
680
  8
__-1
  6
CONTINUOUS
 62
     7
 10
2079.344377772347
 20
167.981286490593
 30
0.0
  0
VERTEX
  5
681
  8
__-1
  6
CONTINUOUS
 62
     7
 10
2089.844377772347
 20
167.981286490593
 30
0.0
  0
VERTEX
  5
682
  8
__-1
  6
CONTINUOUS
 62
     7
 10
2089.844377772347
 20
192.981286490593
 30
0.0
  0
SEQEND
  5
683
  8
__-1
  6
CONTINUOUS
 62
     7
  0
POLYLINE
  5
684
  8
__-1
  6
CONTINUOUS
 62
     7
 66
     1
 10
0.0
 20
0.0
 30
0.0
 70
   129
  0
VERTEX
  5
685
  8
__-1
  6
CONTINUOUS
 62
     7
 10
2116.344377772347
 20
192.9812864905939
 30
0.0
  0
VERTEX
  5
686
  8
__-1
  6
CONTINUOUS
 62
     7
 10
2106.844377772347
 20
192.981286490593
 30
0.0
  0
VERTEX
  5
687
  8
__-1
  6
CONTINUOUS
 62
     7
 10
2106.844377772347
 20
182.981286490593
 30
0.0
  0
VERTEX
  5
688
  8
__-1
  6
CONTINUOUS
 62
     7
 10
2100.844377772347
 20
182.981286490593
 30
0.0
  0
VERTEX
  5
689
  8
__-1
  6
CONTINUOUS
 62
     7
 10
2100.844377772347
 20
192.981286490593
 30
0.0
  0
VERTEX
  5
68A
  8
__-1
  6
CONTINUOUS
 62
     7
 10
2091.344377772347
 20
192.981286490593
 30
0.0
  0
VERTEX
  5
68B
  8
__-1
  6
CONTINUOUS
 62
     7
 10
2091.344377772347
 20
167.981286490593
 30
0.0
  0
VERTEX
  5
68C
  8
__-1
  6
CONTINUOUS
 62
     7
 10
2116.344377772347
 20
167.981286490593
 30
0.0
  0
SEQEND
  5
68D
  8
__-1
  6
CONTINUOUS
 62
     7
  0
INSERT
  5
68E
  8
__-1
 62
     7
  2
____-47
 10
0.0
 20
0.0
 30
0.0
  0
INSERT
  5
68F
  8
__-1
 62
     7
  2
____-49
 10
0.0
 20
0.0
 30
0.0
  0
INSERT
  5
690
  8
__-1
 62
     7
  2
____-51
 10
0.0
 20
0.0
 30
0.0
  0
POLYLINE
  5
691
  8
__-2
  6
CONTINUOUS
 62
     7
 66
     1
 10
0.0
 20
0.0
 30
0.0
 70
   128
  0
VERTEX
  5
692
  8
__-2
  6
CONTINUOUS
 62
     7
 10
2091.344377772347
 20
525.481286490593
 30
0.0
  0
VERTEX
  5
693
  8
__-2
  6
CONTINUOUS
 62
     7
 10
2050.844377772347
 20
525.481286490593
 30
0.0
  0
VERTEX
  5
694
  8
__-2
  6
CONTINUOUS
 62
     7
 10
2050.844377772347
 20
-204.5187135094061
 30
0.0
  0
VERTEX
  5
695
  8
__-2
  6
CONTINUOUS
 62
     7
 10
2060.844377772347
 20
-204.518713509407
 30
0.0
  0
VERTEX
  5
696
  8
__-2
  6
CONTINUOUS
 62
     7
 10
2060.844377772347
 20
491.4812864905921
 30
0.0
  0
VERTEX
  5
697
  8
__-2
  6
CONTINUOUS
 62
     7
 10
2091.344377772347
 20
491.481286490593
 30
0.0
  0
VERTEX
  5
698
  8
__-2
  6
CONTINUOUS
 62
     7
 10
2091.344377772347
 20
525.3214736482728
 30
0.0
  0
SEQEND
  5
699
  8
__-2
  6
CONTINUOUS
 62
     7
  0
POLYLINE
  5
69A
  8
__-2
  6
CONTINUOUS
 62
     7
 66
     1
 10
0.0
 20
0.0
 30
0.0
 70
   129
  0
VERTEX
  5
69B
  8
__-2
  6
CONTINUOUS
 62
     7
 10
2091.344377772347
 20
167.981286490593
 30
0.0
  0
VERTEX
  5
69C
  8
__-2
  6
CONTINUOUS
 62
     7
 10
2100.844377772347
 20
167.981286490593
 30
0.0
  0
VERTEX
  5
69D
  8
__-2
  6
CONTINUOUS
 62
     7
 10
2100.844377772347
 20
-204.518713509407
 30
0.0
  0
VERTEX
  5
69E
  8
__-2
  6
CONTINUOUS
 62
     7
 10
2091.344377772347
 20
-204.518713509407
 30
0.0
  0
SEQEND
  5
69F
  8
__-2
  6
CONTINUOUS
 62
     7
  0
INSERT
  5
6A0
  8
__-2
 62
     7
  2
____-52
 10
0.0
 20
0.0
 30
0.0
  0
INSERT
  5
6A1
  8
__-2
 62
     7
  2
____-53
 10
0.0
 20
0.0
 30
0.0
  0
ENDBLK
  5
119
  8
0
  0
BLOCK
  8
0
  2
___-2_2D
 70
     0
 10
0.0
 20
0.0
 30
0.0
  3
___-2_2D
  1

  0
INSERT
  5
6A2
  8
__-1
 62
     7
  2
____-54
 10
0.0
 20
0.0
 30
0.0
  0
ENDBLK
  5
11C
  8
0
  0
BLOCK
  8
0
  2
____-55
 70
     0
 10
0.0
 20
0.0
 30
0.0
  3
____-55
  1

  0
TEXT
  5
6A3
  8
__-1
 62
     7
 10
181.3372395873219
 20
62.93376321162299
 30
0.0
 40
2.124016203703704
  1
90
  7
______MEDIUM
 11
181.3372395873219
 21
65.05777941532669
 31
0.0
 73
     3
  0
TEXT
  5
6A4
  8
__-1
 62
     7
 10
184.4708984414886
 20
62.93376321162299
 30
0.0
 40
2.124016203703704
  1
/110/150/165
  7
______MEDIUM
 11
184.4708984414886
 21
65.05777941532669
 31
0.0
 73
     3
  0
ENDBLK
  5
120
  8
0
  0
BLOCK
  8
0
  2
____-56
 70
     0
 10
0.0
 20
0.0
 30
0.0
  3
____-56
  1

  0
LINE
  5
6A5
  8
__-1
  6
CONTINUOUS
 62
     7
 10
200.990852868572
 20
54.91220765606743
 30
0.0
 11
200.990852868572
 21
60.91220765606743
 31
0.0
  0
LINE
  5
6A6
  8
__-1
  6
CONTINUOUS
 62
     7
 10
182.9908528685718
 20
54.91220765606743
 30
0.0
 11
182.9908528685718
 21
60.91220765606743
 31
0.0
  0
LINE
  5
6A7
  8
__-1
  6
CONTINUOUS
 62
     7
 10
200.990852868572
 20
60.91220765606743
 30
0.0
 11
182.9908528685718
 21
60.91220765606743
 31
0.0
  0
CIRCLE
  5
6A8
  8
__-1
  6
CONTINUOUS
 62
     7
 10
200.990852868572
 20
60.91220765606743
 30
0.0
 40
0.2999816894531193
  0
CIRCLE
  5
6A9
  8
__-1
  6
CONTINUOUS
 62
     7
 10
182.9908528685718
 20
60.91220765606743
 30
0.0
 40
0.2999816894531193
  0
INSERT
  5
6AA
  8
__-1
 62
     7
  2
____-55
 10
0.0
 20
0.0
 30
0.0
  0
ENDBLK
  5
123
  8
0
  0
BLOCK
  8
0
  2
____-57
 70
     0
 10
0.0
 20
0.0
 30
0.0
  3
____-57
  1

  0
TEXT
  5
6AB
  8
__-1
 62
     7
 10
160.9692973130163
 20
46.8453782289841
 30
0.0
 40
2.124016203703704
  1
25
 50
90.0
  7
______MEDIUM
 11
158.8452811093126
 21
46.8453782289841
 31
0.0
 73
     3
  0
ENDBLK
  5
126
  8
0
  0
BLOCK
  8
0
  2
____-58
 70
     0
 10
0.0
 20
0.0
 30
0.0
  3
____-58
  1

  0
LINE
  5
6AC
  8
__-1
  6
CONTINUOUS
 62
     7
 10
168.9908528685718
 20
50.91220765606745
 30
0.0
 11
162.9908528685718
 21
50.91220765606745
 31
0.0
  0
LINE
  5
6AD
  8
__-1
  6
CONTINUOUS
 62
     7
 10
168.9908528685718
 20
45.91220765606743
 30
0.0
 11
162.9908528685718
 21
45.91220765606743
 31
0.0
  0
LINE
  5
6AE
  8
__-1
  6
CONTINUOUS
 62
     7
 10
162.9908528685718
 20
50.91220765606745
 30
0.0
 11
162.9908528685718
 21
45.91220765606743
 31
0.0
  0
CIRCLE
  5
6AF
  8
__-1
  6
CONTINUOUS
 62
     7
 10
162.9908528685718
 20
50.91220765606745
 30
0.0
 40
0.2999816894531193
  0
CIRCLE
  5
6B0
  8
__-1
  6
CONTINUOUS
 62
     7
 10
162.9908528685718
 20
45.91220765606743
 30
0.0
 40
0.2999816894531193
  0
INSERT
  5
6B1
  8
__-1
 62
     7
  2
____-57
 10
0.0
 20
0.0
 30
0.0
  0
ENDBLK
  5
129
  8
0
  0
BLOCK
  8
0
  2
____-59
 70
     0
 10
0.0
 20
0.0
 30
0.0
  3
____-59
  1

  0
TEXT
  5
6B2
  8
__-1
 62
     7
 10
160.9692973130163
 20
-29.43803648455749
 30
0.0
 40
2.124016203703704
  1
730
 50
90.0
  7
______MEDIUM
 11
158.8452811093126
 21
-29.43803648455749
 31
0.0
 73
     3
  0
ENDBLK
  5
12C
  8
0
  0
BLOCK
  8
0
  2
____-60
 70
     0
 10
0.0
 20
0.0
 30
0.0
  3
____-60
  1

  0
LINE
  5
6B3
  8
__-1
  6
CONTINUOUS
 62
     7
 10
168.9908528685718
 20
-100.0877923439324
 30
0.0
 11
162.9908528685718
 21
-100.0877923439324
 31
0.0
  0
LINE
  5
6B4
  8
__-1
  6
CONTINUOUS
 62
     7
 10
168.9908528685718
 20
45.91220765606743
 30
0.0
 11
162.9908528685718
 21
45.91220765606743
 31
0.0
  0
LINE
  5
6B5
  8
__-1
  6
CONTINUOUS
 62
     7
 10
162.9908528685718
 20
-100.0877923439324
 30
0.0
 11
162.9908528685718
 21
45.91220765606743
 31
0.0
  0
CIRCLE
  5
6B6
  8
__-1
  6
CONTINUOUS
 62
     7
 10
162.9908528685718
 20
-100.0877923439324
 30
0.0
 40
0.2999816894531193
  0
CIRCLE
  5
6B7
  8
__-1
  6
CONTINUOUS
 62
     7
 10
162.9908528685718
 20
45.91220765606743
 30
0.0
 40
0.2999816894531193
  0
INSERT
  5
6B8
  8
__-1
 62
     7
  2
____-59
 10
0.0
 20
0.0
 30
0.0
  0
ENDBLK
  5
12F
  8
0
  0
BLOCK
  8
0
  2
____-61
 70
     0
 10
0.0
 20
0.0
 30
0.0
  3
____-61
  1

  0
TEXT
  5
6B9
  8
__-1
 62
     7
 10
160.9692973130163
 20
-104.1546217710158
 30
0.0
 40
2.124016203703704
  1
25
 50
90.0
  7
______MEDIUM
 11
158.8452811093126
 21
-104.1546217710158
 31
0.0
 73
     3
  0
ENDBLK
  5
132
  8
0
  0
BLOCK
  8
0
  2
____-62
 70
     0
 10
0.0
 20
0.0
 30
0.0
  3
____-62
  1

  0
LINE
  5
6BA
  8
__-1
  6
CONTINUOUS
 62
     7
 10
168.9908528685718
 20
-100.0877923439324
 30
0.0
 11
162.9908528685718
 21
-100.0877923439324
 31
0.0
  0
LINE
  5
6BB
  8
__-1
  6
CONTINUOUS
 62
     7
 10
168.9908528685718
 20
-105.0877923439326
 30
0.0
 11
162.9908528685718
 21
-105.0877923439326
 31
0.0
  0
LINE
  5
6BC
  8
__-1
  6
CONTINUOUS
 62
     7
 10
162.9908528685718
 20
-100.0877923439324
 30
0.0
 11
162.9908528685718
 21
-105.0877923439326
 31
0.0
  0
CIRCLE
  5
6BD
  8
__-1
  6
CONTINUOUS
 62
     7
 10
162.9908528685718
 20
-100.0877923439324
 30
0.0
 40
0.2999816894531193
  0
CIRCLE
  5
6BE
  8
__-1
  6
CONTINUOUS
 62
     7
 10
162.9908528685718
 20
-105.0877923439326
 30
0.0
 40
0.2999816894531193
  0
INSERT
  5
6BF
  8
__-1
 62
     7
  2
____-61
 10
0.0
 20
0.0
 30
0.0
  0
ENDBLK
  5
135
  8
0
  0
BLOCK
  8
0
  2
____-63
 70
     0
 10
0.0
 20
0.0
 30
0.0
  3
____-63
  1

  0
TEXT
  5
6C0
  8
__-1
 62
     7
 10
170.9692973130163
 20
-63.83663131962693
 30
0.0
 40
2.124016203703704
  1
397.5
 50
90.0
  7
______MEDIUM
 11
168.8452811093126
 21
-63.83663131962693
 31
0.0
 73
     3
  0
ENDBLK
  5
138
  8
0
  0
BLOCK
  8
0
  2
____-64
 70
     0
 10
0.0
 20
0.0
 30
0.0
  3
____-64
  1

  0
LINE
  5
6C1
  8
__-1
  6
CONTINUOUS
 62
     7
 10
178.9908528685718
 20
-100.0877923439324
 30
0.0
 11
172.9908528685718
 21
-100.0877923439324
 31
0.0
  0
LINE
  5
6C2
  8
__-1
  6
CONTINUOUS
 62
     7
 10
178.9908528685718
 20
-20.58779234393257
 30
0.0
 11
172.9908528685718
 21
-20.58779234393257
 31
0.0
  0
LINE
  5
6C3
  8
__-1
  6
CONTINUOUS
 62
     7
 10
172.9908528685718
 20
-100.0877923439324
 30
0.0
 11
172.9908528685718
 21
-20.58779234393257
 31
0.0
  0
CIRCLE
  5
6C4
  8
__-1
  6
CONTINUOUS
 62
     7
 10
172.9908528685718
 20
-100.0877923439324
 30
0.0
 40
0.2999816894531193
  0
CIRCLE
  5
6C5
  8
__-1
  6
CONTINUOUS
 62
     7
 10
172.9908528685718
 20
-20.58779234393257
 30
0.0
 40
0.2999816894531193
  0
INSERT
  5
6C6
  8
__-1
 62
     7
  2
____-63
 10
0.0
 20
0.0
 30
0.0
  0
ENDBLK
  5
13B
  8
0
  0
BLOCK
  8
0
  2
____-65
 70
     0
 10
0.0
 20
0.0
 30
0.0
  3
____-65
  1

  0
TEXT
  5
6C7
  8
__-1
 62
     7
 10
208.9692973130164
 20
6.663368680372985
 30
0.0
 40
2.124016203703704
  1
357.5
 50
90.0
  7
______MEDIUM
 11
206.8452811093127
 21
6.663368680372985
 31
0.0
 73
     3
  0
ENDBLK
  5
13E
  8
0
  0
BLOCK
  8
0
  2
____-66
 70
     0
 10
0.0
 20
0.0
 30
0.0
  3
____-66
  1

  0
LINE
  5
6C8
  8
__-1
  6
CONTINUOUS
 62
     7
 10
204.9908528685719
 20
-25.58779234393257
 30
0.0
 11
210.9908528685719
 21
-25.58779234393257
 31
0.0
  0
LINE
  5
6C9
  8
__-1
  6
CONTINUOUS
 62
     7
 10
204.9908528685719
 20
45.91220765606743
 30
0.0
 11
210.9908528685719
 21
45.91220765606743
 31
0.0
  0
LINE
  5
6CA
  8
__-1
  6
CONTINUOUS
 62
     7
 10
210.9908528685719
 20
-25.58779234393257
 30
0.0
 11
210.9908528685719
 21
45.91220765606743
 31
0.0
  0
CIRCLE
  5
6CB
  8
__-1
  6
CONTINUOUS
 62
     7
 10
210.9908528685719
 20
-25.58779234393257
 30
0.0
 40
0.2999816894531193
  0
CIRCLE
  5
6CC
  8
__-1
  6
CONTINUOUS
 62
     7
 10
210.9908528685719
 20
45.91220765606743
 30
0.0
 40
0.2999816894531193
  0
INSERT
  5
6CD
  8
__-1
 62
     7
  2
____-65
 10
0.0
 20
0.0
 30
0.0
  0
ENDBLK
  5
141
  8
0
  0
BLOCK
  8
0
  2
____-67
 70
     0
 10
0.0
 20
0.0
 30
0.0
  3
____-67
  1

  0
INSERT
  5
6CE
  8
__-1
 62
     7
  2
____-56
 10
0.0
 20
0.0
 30
0.0
  0
INSERT
  5
6CF
  8
__-1
 62
     7
  2
____-58
 10
0.0
 20
0.0
 30
0.0
  0
INSERT
  5
6D0
  8
__-1
 62
     7
  2
____-60
 10
0.0
 20
0.0
 30
0.0
  0
INSERT
  5
6D1
  8
__-1
 62
     7
  2
____-62
 10
0.0
 20
0.0
 30
0.0
  0
INSERT
  5
6D2
  8
__-1
 62
     7
  2
____-64
 10
0.0
 20
0.0
 30
0.0
  0
INSERT
  5
6D3
  8
__-1
 62
     7
  2
____-66
 10
0.0
 20
0.0
 30
0.0
  0
ENDBLK
  5
144
  8
0
  0
BLOCK
  8
0
  2
____-68
 70
     0
 10
0.0
 20
0.0
 30
0.0
  3
____-68
  1

  0
LINE
  5
6D4
  8
__-1
  6
CONTINUOUS
 62
     7
 10
1284.675063679458
 20
806.7523321883898
 30
0.0
 11
1287.675063679458
 21
810.7523321883898
 31
0.0
  0
LINE
  5
6D5
  8
__-1
  6
CONTINUOUS
 62
     7
 10
1287.675063679458
 20
806.7523321883898
 30
0.0
 11
1284.675063679458
 21
810.7523321883898
 31
0.0
  0
ENDBLK
  5
147
  8
0
  0
BLOCK
  8
0
  2
____-69
 70
     0
 10
0.0
 20
0.0
 30
0.0
  3
____-69
  1

  0
POLYLINE
  5
6D6
  8
__-2
  6
CONTINUOUS
 62
     7
 66
     1
 10
0.0
 20
0.0
 30
0.0
 70
   129
  0
VERTEX
  5
6D7
  8
__-2
  6
CONTINUOUS
 62
     7
 10
1284.675063679458
 20
810.7523321883898
 30
0.0
  0
VERTEX
  5
6D8
  8
__-2
  6
CONTINUOUS
 62
     7
 10
1287.675063679458
 20
810.7523321883898
 30
0.0
  0
VERTEX
  5
6D9
  8
__-2
  6
CONTINUOUS
 62
     7
 10
1287.675063679458
 20
806.7523321883898
 30
0.0
  0
VERTEX
  5
6DA
  8
__-2
  6
CONTINUOUS
 62
     7
 10
1284.675063679458
 20
806.7523321883898
 30
0.0
  0
SEQEND
  5
6DB
  8
__-2
  6
CONTINUOUS
 62
     7
  0
INSERT
  5
6DC
  8
__-1
 62
     7
  2
____-68
 10
0.0
 20
0.0
 30
0.0
  0
ENDBLK
  5
14A
  8
0
  0
BLOCK
  8
0
  2
____-70
 70
     0
 10
0.0
 20
0.0
 30
0.0
  3
____-70
  1

  0
LINE
  5
6DD
  8
__-1
  6
CONTINUOUS
 62
     7
 10
1309.675063679458
 20
778.2523321883898
 30
0.0
 11
1312.675063679458
 21
783.2523321883898
 31
0.0
  0
LINE
  5
6DE
  8
__-1
  6
CONTINUOUS
 62
     7
 10
1312.675063679458
 20
778.2523321883898
 30
0.0
 11
1309.675063679458
 21
783.2523321883898
 31
0.0
  0
ENDBLK
  5
14D
  8
0
  0
BLOCK
  8
0
  2
____-71
 70
     0
 10
0.0
 20
0.0
 30
0.0
  3
____-71
  1

  0
POLYLINE
  5
6DF
  8
__-2
  6
CONTINUOUS
 62
     7
 66
     1
 10
0.0
 20
0.0
 30
0.0
 70
   129
  0
VERTEX
  5
6E0
  8
__-2
  6
CONTINUOUS
 62
     7
 10
1309.675063679458
 20
783.2523321883898
 30
0.0
  0
VERTEX
  5
6E1
  8
__-2
  6
CONTINUOUS
 62
     7
 10
1312.675063679458
 20
783.2523321883898
 30
0.0
  0
VERTEX
  5
6E2
  8
__-2
  6
CONTINUOUS
 62
     7
 10
1312.675063679458
 20
778.2523321883898
 30
0.0
  0
VERTEX
  5
6E3
  8
__-2
  6
CONTINUOUS
 62
     7
 10
1309.675063679458
 20
778.2523321883898
 30
0.0
  0
SEQEND
  5
6E4
  8
__-2
  6
CONTINUOUS
 62
     7
  0
INSERT
  5
6E5
  8
__-1
 62
     7
  2
____-70
 10
0.0
 20
0.0
 30
0.0
  0
ENDBLK
  5
150
  8
0
  0
BLOCK
  8
0
  2
____-72
 70
     0
 10
0.0
 20
0.0
 30
0.0
  3
____-72
  1

  0
POLYLINE
  5
6E6
  8
__-2
  6
CONTINUOUS
 62
     7
 66
     1
 10
0.0
 20
0.0
 30
0.0
 70
   129
  0
VERTEX
  5
6E7
  8
__-2
  6
CONTINUOUS
 62
     7
 10
1421.306971939544
 20
806.7523321883898
 30
0.0
  0
VERTEX
  5
6E8
  8
__-2
  6
CONTINUOUS
 62
     7
 10
1287.675063679458
 20
806.7523321883898
 30
0.0
  0
VERTEX
  5
6E9
  8
__-2
  6
CONTINUOUS
 62
     7
 10
1287.675063679458
 20
810.7523321883898
 30
0.0
  0
VERTEX
  5
6EA
  8
__-2
  6
CONTINUOUS
 62
     7
 10
1421.306971939544
 20
810.7523321883898
 30
0.0
  0
SEQEND
  5
6EB
  8
__-2
  6
CONTINUOUS
 62
     7
  0
ENDBLK
  5
153
  8
0
  0
BLOCK
  8
0
  2
____-73
 70
     0
 10
0.0
 20
0.0
 30
0.0
  3
____-73
  1

  0
POLYLINE
  5
6EC
  8
__-2
  6
CONTINUOUS
 62
     7
 66
     1
 10
0.0
 20
0.0
 30
0.0
 70
   129
  0
VERTEX
  5
6ED
  8
__-2
  6
CONTINUOUS
 62
     7
 10
1421.306971939544
 20
778.2523321883898
 30
0.0
  0
VERTEX
  5
6EE
  8
__-2
  6
CONTINUOUS
 62
     7
 10
1312.675063679458
 20
778.2523321883898
 30
0.0
  0
VERTEX
  5
6EF
  8
__-2
  6
CONTINUOUS
 62
     7
 10
1312.675063679458
 20
783.2523321883898
 30
0.0
  0
VERTEX
  5
6F0
  8
__-2
  6
CONTINUOUS
 62
     7
 10
1421.306971939544
 20
783.2523321883898
 30
0.0
  0
SEQEND
  5
6F1
  8
__-2
  6
CONTINUOUS
 62
     7
  0
ENDBLK
  5
156
  8
0
  0
BLOCK
  8
0
  2
___-3_2D
 70
     0
 10
0.0
 20
0.0
 30
0.0
  3
___-3_2D
  1

  0
POLYLINE
  5
6F2
  8
__-1
  6
CONTINUOUS
 62
     7
 66
     1
 10
0.0
 20
0.0
 30
0.0
 70
   128
  0
VERTEX
  5
6F3
  8
__-1
  6
CONTINUOUS
 62
     7
 10
1421.306971939544
 20
826.2523321883898
 30
0.0
  0
VERTEX
  5
6F4
  8
__-1
  6
CONTINUOUS
 62
     7
 10
1269.675063679458
 20
826.2523321883898
 30
0.0
  0
VERTEX
  5
6F5
  8
__-1
  6
CONTINUOUS
 62
     7
 10
1269.675063679458
 20
736.2523321883898
 30
0.0
  0
VERTEX
  5
6F6
  8
__-1
  6
CONTINUOUS
 62
     7
 10
1421.306971939544
 20
736.2523321883898
 30
0.0
  0
SEQEND
  5
6F7
  8
__-1
  6
CONTINUOUS
 62
     7
  0
LINE
  5
6F8
  8
__-1
  6
CONTINUOUS
 62
     7
 10
1421.306971939544
 20
778.2523321883898
 30
0.0
 11
1309.675063679458
 21
778.2523321883898
 31
0.0
  0
LINE
  5
6F9
  8
__-1
  6
CONTINUOUS
 62
     7
 10
1309.675063679458
 20
783.2523321883898
 30
0.0
 11
1421.306971939544
 21
783.2523321883898
 31
0.0
  0
LINE
  5
6FA
  8
__-2
  6
CONTINUOUS
 62
     7
 10
1096.158798424768
 20
803.7523321883898
 30
0.0
 11
1269.675063679458
 21
803.7523321883898
 31
0.0
  0
LINE
  5
6FB
  8
__-2
  6
CONTINUOUS
 62
     7
 10
1096.158798424768
 20
816.2523321883898
 30
0.0
 11
1269.675063679458
 21
816.2523321883898
 31
0.0
  0
LINE
  5
6FC
  8
__-2
  6
ISO-10______
 62
     8
 10
1096.158798424768
 20
781.2523321883898
 30
0.0
 11
1269.675063679458
 21
781.2523321883898
 31
0.0
  0
LINE
  5
6FD
  8
__-2
  6
CONTINUOUS
 62
   251
 10
1096.158798424768
 20
803.7523321883898
 30
0.0
 11
1269.675063679458
 21
803.7523321883898
 31
0.0
  0
LINE
  5
6FE
  8
__-2
  6
CONTINUOUS
 62
   251
 10
1096.158798424768
 20
758.7523321883898
 30
0.0
 11
1269.675063679458
 21
758.7523321883898
 31
0.0
  0
LINE
  5
6FF
  8
__-2
  6
ISO-10______
 62
     8
 10
1096.158798424768
 20
781.2523321883898
 30
0.0
 11
1269.675063679458
 21
781.2523321883898
 31
0.0
  0
LINE
  5
700
  8
__-2
  6
CONTINUOUS
 62
     7
 10
1096.158798424768
 20
746.2523321883898
 30
0.0
 11
1269.675063679458
 21
746.2523321883898
 31
0.0
  0
LINE
  5
701
  8
__-2
  6
CONTINUOUS
 62
     7
 10
1096.158798424768
 20
758.7523321883898
 30
0.0
 11
1269.675063679458
 21
758.7523321883898
 31
0.0
  0
LINE
  5
702
  8
__-2
  6
CONTINUOUS
 62
     7
 10
1269.675063679458
 20
746.2523321883898
 30
0.0
 11
1269.675063679458
 21
816.2523321883898
 31
0.0
  0
LINE
  5
703
  8
__-2
  6
CONTINUOUS
 62
     7
 10
1096.158798424768
 20
816.2523321883898
 30
0.0
 11
1269.675063679458
 21
816.2523321883898
 31
0.0
  0
LINE
  5
704
  8
__-2
  6
CONTINUOUS
 62
     7
 10
1096.158798424768
 20
746.2523321883898
 30
0.0
 11
1269.675063679458
 21
746.2523321883898
 31
0.0
  0
LINE
  5
705
  8
__-2
  6
CONTINUOUS
 62
     7
 10
1269.675063679458
 20
803.7523321883898
 30
0.0
 11
1269.675063679458
 21
826.2523321883898
 31
0.0
  0
LINE
  5
706
  8
__-2
  6
_____-5
 62
     7
 10
1294.675063679458
 20
796.2523321883898
 30
0.0
 11
1421.306971939544
 21
796.2523321883898
 31
0.0
  0
LINE
  5
707
  8
__-2
  6
_____-5
 62
     7
 10
1294.675063679458
 20
821.2523321883898
 30
0.0
 11
1421.306971939544
 21
821.2523321883898
 31
0.0
  0
LINE
  5
708
  8
__-2
  6
CONTINUOUS
 62
     7
 10
1309.675063679458
 20
784.2523321883898
 30
0.0
 11
1309.675063679458
 21
777.2523321883898
 31
0.0
  0
LINE
  5
709
  8
__-2
  6
CONTINUOUS
 62
     7
 10
1309.675063679458
 20
777.2523321883898
 30
0.0
 11
1319.675063679458
 21
777.2523321883898
 31
0.0
  0
LINE
  5
70A
  8
__-2
  6
CONTINUOUS
 62
     7
 10
1309.675063679458
 20
784.2523321883898
 30
0.0
 11
1319.675063679458
 21
784.2523321883898
 31
0.0
  0
POLYLINE
  5
70B
  8
__-2
  6
CONTINUOUS
 62
     7
 66
     1
 10
0.0
 20
0.0
 30
0.0
 70
   129
  0
VERTEX
  5
70C
  8
__-2
  6
CONTINUOUS
 62
     7
 10
1294.675063679458
 20
805.7523321883898
 30
0.0
  0
VERTEX
  5
70D
  8
__-2
  6
CONTINUOUS
 62
     7
 10
1297.675063679458
 20
805.7523321883898
 30
0.0
  0
VERTEX
  5
70E
  8
__-2
  6
CONTINUOUS
 62
     7
 10
1297.675063679458
 20
796.2523321883898
 30
0.0
  0
VERTEX
  5
70F
  8
__-2
  6
CONTINUOUS
 62
     7
 10
1294.675063679458
 20
796.2523321883898
 30
0.0
  0
SEQEND
  5
710
  8
__-2
  6
CONTINUOUS
 62
     7
  0
POLYLINE
  5
711
  8
__-2
  6
CONTINUOUS
 62
     7
 66
     1
 10
0.0
 20
0.0
 30
0.0
 70
   129
  0
VERTEX
  5
712
  8
__-2
  6
CONTINUOUS
 62
     7
 10
1294.675063679458
 20
765.7523321883898
 30
0.0
  0
VERTEX
  5
713
  8
__-2
  6
CONTINUOUS
 62
     7
 10
1297.675063679458
 20
765.7523321883898
 30
0.0
  0
VERTEX
  5
714
  8
__-2
  6
CONTINUOUS
 62
     7
 10
1297.675063679458
 20
755.7523321883903
 30
0.0
  0
VERTEX
  5
715
  8
__-2
  6
CONTINUOUS
 62
     7
 10
1294.675063679458
 20
755.7523321883903
 30
0.0
  0
SEQEND
  5
716
  8
__-2
  6
CONTINUOUS
 62
     7
  0
POLYLINE
  5
717
  8
__-1
  6
CONTINUOUS
 62
     7
 66
     1
 10
0.0
 20
0.0
 30
0.0
 70
   128
  0
VERTEX
  5
718
  8
__-1
  6
CONTINUOUS
 62
     7
 10
1421.306971939544
 20
810.7523321883898
 30
0.0
  0
VERTEX
  5
719
  8
__-1
  6
CONTINUOUS
 62
     7
 10
1284.675063679458
 20
810.7523321883898
 30
0.0
  0
VERTEX
  5
71A
  8
__-1
  6
CONTINUOUS
 62
     7
 10
1284.675063679458
 20
806.7523321883898
 30
0.0
  0
VERTEX
  5
71B
  8
__-1
  6
CONTINUOUS
 62
     7
 10
1421.306971939544
 20
806.7523321883898
 30
0.0
  0
SEQEND
  5
71C
  8
__-1
  6
CONTINUOUS
 62
     7
  0
POLYLINE
  5
71D
  8
__-1
  6
CONTINUOUS
 62
     7
 66
     1
 10
0.0
 20
0.0
 30
0.0
 70
   129
  0
VERTEX
  5
71E
  8
__-1
  6
CONTINUOUS
 62
     7
 10
1319.675063679458
 20
794.7523321883898
 30
0.0
  0
VERTEX
  5
71F
  8
__-1
  6
CONTINUOUS
 62
     7
 10
1295.675063679458
 20
794.7523321883898
 30
0.0
  0
VERTEX
  5
720
  8
__-1
  6
CONTINUOUS
 62
     7
 10
1295.675063679458
 20
766.7523321883898
 30
0.0
  0
VERTEX
  5
721
  8
__-1
  6
CONTINUOUS
 62
     7
 10
1319.675063679458
 20
766.7523321883898
 30
0.0
  0
VERTEX
  5
722
  8
__-1
  6
CONTINUOUS
 62
     7
 10
1319.675063679458
 20
777.2523321883898
 30
0.0
  0
VERTEX
  5
723
  8
__-1
  6
CONTINUOUS
 62
     7
 10
1309.675063679458
 20
777.2523321883898
 30
0.0
  0
VERTEX
  5
724
  8
__-1
  6
CONTINUOUS
 62
     7
 10
1309.675063679458
 20
784.2523321883898
 30
0.0
  0
VERTEX
  5
725
  8
__-1
  6
CONTINUOUS
 62
     7
 10
1319.675063679458
 20
784.2523321883898
 30
0.0
  0
SEQEND
  5
726
  8
__-1
  6
CONTINUOUS
 62
     7
  0
LINE
  5
727
  8
__-1
  6
CONTINUOUS
 62
     7
 10
1319.675063679458
 20
794.7523321883898
 30
0.0
 11
1421.306971939544
 21
794.7523321883898
 31
0.0
  0
LINE
  5
728
  8
__-1
  6
CONTINUOUS
 62
     7
 10
1421.306971939544
 20
766.7523321883898
 30
0.0
 11
1319.675063679458
 21
766.7523321883898
 31
0.0
  0
POLYLINE
  5
729
  8
__-1
  6
CONTINUOUS
 62
     7
 66
     1
 10
0.0
 20
0.0
 30
0.0
 70
   129
  0
VERTEX
  5
72A
  8
__-1
  6
CONTINUOUS
 62
     7
 10
1284.675063679458
 20
811.7523321883898
 30
0.0
  0
VERTEX
  5
72B
  8
__-1
  6
CONTINUOUS
 62
     7
 10
1294.675063679458
 20
811.7523321883898
 30
0.0
  0
VERTEX
  5
72C
  8
__-1
  6
CONTINUOUS
 62
     7
 10
1294.675063679458
 20
826.2523321883898
 30
0.0
  0
VERTEX
  5
72D
  8
__-1
  6
CONTINUOUS
 62
     7
 10
1269.675063679458
 20
826.2523321883898
 30
0.0
  0
VERTEX
  5
72E
  8
__-1
  6
CONTINUOUS
 62
     7
 10
1269.675063679458
 20
803.7523321883898
 30
0.0
  0
VERTEX
  5
72F
  8
__-1
  6
CONTINUOUS
 62
     7
 10
1261.675063679458
 20
803.7523321883898
 30
0.0
  0
VERTEX
  5
730
  8
__-1
  6
CONTINUOUS
 62
     7
 10
1261.675063679458
 20
758.7523321883898
 30
0.0
  0
VERTEX
  5
731
  8
__-1
  6
CONTINUOUS
 62
     7
 10
1269.675063679458
 20
758.7523321883898
 30
0.0
  0
VERTEX
  5
732
  8
__-1
  6
CONTINUOUS
 62
     7
 10
1269.675063679458
 20
736.2523321883898
 30
0.0
  0
VERTEX
  5
733
  8
__-1
  6
CONTINUOUS
 62
     7
 10
1294.675063679458
 20
736.2523321883898
 30
0.0
  0
VERTEX
  5
734
  8
__-1
  6
CONTINUOUS
 62
     7
 10
1294.675063679458
 20
805.7523321883898
 30
0.0
  0
VERTEX
  5
735
  8
__-1
  6
CONTINUOUS
 62
     7
 10
1284.675063679458
 20
805.7523321883898
 30
0.0
  0
SEQEND
  5
736
  8
__-1
  6
CONTINUOUS
 62
     7
  0
POLYLINE
  5
737
  8
__-1
  6
CONTINUOUS
 62
     7
 66
     1
 10
0.0
 20
0.0
 30
0.0
 70
   129
  0
VERTEX
  5
738
  8
__-1
  6
CONTINUOUS
 62
     7
 10
1270.675063679458
 20
793.7523321883893
 30
0.0
  0
VERTEX
  5
739
  8
__-1
  6
CONTINUOUS
 62
     7
 10
1294.675063679458
 20
793.7523321883893
 30
0.0
  0
VERTEX
  5
73A
  8
__-1
  6
CONTINUOUS
 62
     7
 10
1294.675063679458
 20
767.7523321883884
 30
0.0
  0
VERTEX
  5
73B
  8
__-1
  6
CONTINUOUS
 62
     7
 10
1270.675063679458
 20
767.7523321883884
 30
0.0
  0
SEQEND
  5
73C
  8
__-1
  6
CONTINUOUS
 62
     7
  0
POLYLINE
  5
73D
  8
__-2
  6
CONTINUOUS
 62
     7
 66
     1
 10
0.0
 20
0.0
 30
0.0
 70
   129
  0
VERTEX
  5
73E
  8
__-2
  6
CONTINUOUS
 62
     7
 10
1292.175063679458
 20
793.7523321883893
 30
0.0
  0
VERTEX
  5
73F
  8
__-2
  6
CONTINUOUS
 62
     7
 10
1294.675063679458
 20
793.7523321883893
 30
0.0
  0
VERTEX
  5
740
  8
__-2
  6
CONTINUOUS
 62
     7
 10
1294.675063679458
 20
767.7523321883889
 30
0.0
  0
VERTEX
  5
741
  8
__-2
  6
CONTINUOUS
 62
     7
 10
1292.175063679458
 20
767.7523321883889
 30
0.0
  0
SEQEND
  5
742
  8
__-2
  6
CONTINUOUS
 62
     7
  0
LINE
  5
743
  8
__-2
  6
_____-5
 62
     7
 10
1270.675063679458
 20
793.7523321883893
 30
0.0
 11
1292.175063679458
 21
767.7523321883889
 31
0.0
  0
LINE
  5
744
  8
__-2
  6
_____-5
 62
     7
 10
1292.175063679458
 20
793.7523321883893
 30
0.0
 11
1270.675063679458
 21
767.7523321883884
 31
0.0
  0
POLYLINE
  5
745
  8
__-1
  6
CONTINUOUS
 62
     7
 66
     1
 10
0.0
 20
0.0
 30
0.0
 70
   129
  0
VERTEX
  5
746
  8
__-1
  6
CONTINUOUS
 62
     7
 10
1249.675063679458
 20
803.7523321883898
 30
0.0
  0
VERTEX
  5
747
  8
__-1
  6
CONTINUOUS
 62
     7
 10
1261.675063679458
 20
803.7523321883898
 30
0.0
  0
VERTEX
  5
748
  8
__-1
  6
CONTINUOUS
 62
     7
 10
1261.675063679458
 20
758.7523321883898
 30
0.0
  0
VERTEX
  5
749
  8
__-1
  6
CONTINUOUS
 62
     7
 10
1249.675063679458
 20
758.7523321883898
 30
0.0
  0
SEQEND
  5
74A
  8
__-1
  6
CONTINUOUS
 62
     7
  0
INSERT
  5
74B
  8
__-1
 62
     7
  2
____-69
 10
0.0
 20
0.0
 30
0.0
  0
INSERT
  5
74C
  8
__-1
 62
     7
  2
____-71
 10
0.0
 20
0.0
 30
0.0
  0
POLYLINE
  5
74D
  8
__-2
  6
CONTINUOUS
 62
     1
 66
     1
 10
0.0
 20
0.0
 30
0.0
 70
   129
  0
VERTEX
  5
74E
  8
__-2
  6
CONTINUOUS
 62
     1
 10
1292.175063679458
 20
793.7523321883893
 30
0.0
  0
VERTEX
  5
74F
  8
__-2
  6
CONTINUOUS
 62
     1
 10
1294.675063679458
 20
793.7523321883893
 30
0.0
  0
VERTEX
  5
750
  8
__-2
  6
CONTINUOUS
 62
     1
 10
1294.675063679458
 20
767.7523321883889
 30
0.0
  0
VERTEX
  5
751
  8
__-2
  6
CONTINUOUS
 62
     1
 10
1292.175063679458
 20
767.7523321883889
 30
0.0
  0
SEQEND
  5
752
  8
__-2
  6
CONTINUOUS
 62
     1
  0
INSERT
  5
753
  8
__-2
 62
     7
  2
____-72
 10
0.0
 20
0.0
 30
0.0
  0
INSERT
  5
754
  8
__-2
 62
     7
  2
____-73
 10
0.0
 20
0.0
 30
0.0
  0
ENDBLK
  5
159
  8
0
  0
BLOCK
  8
0
  2
____-74
 70
     0
 10
0.0
 20
0.0
 30
0.0
  3
____-74
  1

  0
TEXT
  5
755
  8
__-1
 62
     7
 10
16.26072296462889
 20
116.1912864974621
 30
0.0
 40
2.124016203703703
  1
90
 50
90.0
  7
______MEDIUM
 11
14.13670676092518
 21
116.1912864974621
 31
0.0
 73
     3
  0
ENDBLK
  5
15D
  8
0
  0
BLOCK
  8
0
  2
____-75
 70
     0
 10
0.0
 20
0.0
 30
0.0
  3
____-75
  1

  0
LINE
  5
756
  8
__-1
  6
CONTINUOUS
 62
     7
 10
8.48227852018444
 20
102.7581159245455
 30
0.0
 11
18.48227852018444
 21
102.7581159245455
 31
0.0
  0
LINE
  5
757
  8
__-1
  6
CONTINUOUS
 62
     7
 10
8.48227852018444
 20
132.7581159245454
 30
0.0
 11
18.48227852018444
 21
132.7581159245454
 31
0.0
  0
LINE
  5
758
  8
__-1
  6
CONTINUOUS
 62
     7
 10
18.48227852018444
 20
102.7581159245455
 30
0.0
 11
18.48227852018444
 21
132.7581159245454
 31
0.0
  0
CIRCLE
  5
759
  8
__-1
  6
CONTINUOUS
 62
     7
 10
18.48227852018444
 20
102.7581159245455
 30
0.0
 40
0.2999816894531264
  0
CIRCLE
  5
75A
  8
__-1
  6
CONTINUOUS
 62
     7
 10
18.48227852018444
 20
132.7581159245454
 30
0.0
 40
0.2999816894531264
  0
INSERT
  5
75B
  8
__-1
 62
     7
  2
____-74
 10
0.0
 20
0.0
 30
0.0
  0
ENDBLK
  5
160
  8
0
  0
BLOCK
  8
0
  2
____-76
 70
     0
 10
0.0
 20
0.0
 30
0.0
  3
____-76
  1

  0
TEXT
  5
75C
  8
__-1
 62
     7
 10
-37.32325234331339
 20
143.3130048134343
 30
0.0
 40
2.124016203703703
  1
25
  7
______MEDIUM
 11
-37.32325234331339
 21
145.437021017138
 31
0.0
 73
     3
  0
ENDBLK
  5
163
  8
0
  0
BLOCK
  8
0
  2
____-77
 70
     0
 10
0.0
 20
0.0
 30
0.0
  3
____-77
  1

  0
LINE
  5
75D
  8
__-1
  6
CONTINUOUS
 62
     7
 10
-31.58975624956337
 20
136.0914492578787
 30
0.0
 11
-31.58975624956337
 21
141.0914492578787
 31
0.0
  0
LINE
  5
75E
  8
__-1
  6
CONTINUOUS
 62
     7
 10
-39.92308958289674
 20
136.0914492578787
 30
0.0
 11
-39.92308958289674
 21
141.0914492578787
 31
0.0
  0
LINE
  5
75F
  8
__-1
  6
CONTINUOUS
 62
     7
 10
-31.58975624956337
 20
141.0914492578787
 30
0.0
 11
-39.92308958289674
 21
141.0914492578787
 31
0.0
  0
CIRCLE
  5
760
  8
__-1
  6
CONTINUOUS
 62
     7
 10
-31.58975624956337
 20
141.0914492578787
 30
0.0
 40
0.2999816894531264
  0
CIRCLE
  5
761
  8
__-1
  6
CONTINUOUS
 62
     7
 10
-39.92308958289674
 20
141.0914492578787
 30
0.0
 40
0.2999816894531264
  0
INSERT
  5
762
  8
__-1
 62
     7
  2
____-76
 10
0.0
 20
0.0
 30
0.0
  0
ENDBLK
  5
166
  8
0
  0
BLOCK
  8
0
  2
____-78
 70
     0
 10
0.0
 20
0.0
 30
0.0
  3
____-78
  1

  0
TEXT
  5
763
  8
__-1
 62
     7
 10
-48.85147860625351
 20
129.5246198307954
 30
0.0
 40
2.124016203703703
  1
10
 50
90.0
  7
______MEDIUM
 11
-50.97549480995721
 21
129.5246198307954
 31
0.0
 73
     3
  0
TEXT
  5
764
  8
__-1
 62
     7
 10
-43.33592305069796
 20
128.2692270356565
 30
0.0
 40
2.124016203703703
  1
チリ
 50
90.0
  7
______MEDIUM
 11
-45.45993925440166
 21
128.2692270356565
 31
0.0
 73
     3
  0
ENDBLK
  5
169
  8
0
  0
BLOCK
  8
0
  2
____-79
 70
     0
 10
0.0
 20
0.0
 30
0.0
  3
____-79
  1

  0
LINE
  5
765
  8
__-1
  6
CONTINUOUS
 62
     7
 10
-41.62992305069795
 20
132.7581159245454
 30
0.0
 11
-46.62992305069795
 21
132.7581159245454
 31
0.0
  0
LINE
  5
766
  8
__-1
  6
CONTINUOUS
 62
     7
 10
-41.62992305069795
 20
129.424782591212
 30
0.0
 11
-46.62992305069795
 21
129.424782591212
 31
0.0
  0
LINE
  5
767
  8
__-1
  6
CONTINUOUS
 62
     7
 10
-46.62992305069795
 20
132.7581159245454
 30
0.0
 11
-46.62992305069795
 21
129.424782591212
 31
0.0
  0
CIRCLE
  5
768
  8
__-1
  6
CONTINUOUS
 62
     7
 10
-46.62992305069795
 20
132.7581159245454
 30
0.0
 40
0.2999816894531264
  0
CIRCLE
  5
769
  8
__-1
  6
CONTINUOUS
 62
     7
 10
-46.62992305069795
 20
129.424782591212
 30
0.0
 40
0.2999816894531264
  0
INSERT
  5
76A
  8
__-1
 62
     7
  2
____-78
 10
0.0
 20
0.0
 30
0.0
  0
ENDBLK
  5
16C
  8
0
  0
BLOCK
  8
0
  2
____-80
 70
     0
 10
0.0
 20
0.0
 30
0.0
  3
____-80
  1

  0
TEXT
  5
76B
  8
__-1
 62
     7
 10
-48.85147860625351
 20
102.8579531641288
 30
0.0
 40
2.124016203703703
  1
10
 50
90.0
  7
______MEDIUM
 11
-50.97549480995721
 21
102.8579531641288
 31
0.0
 73
     3
  0
TEXT
  5
76C
  8
__-1
 62
     7
 10
-43.33592305069796
 20
101.6025603689899
 30
0.0
 40
2.124016203703703
  1
チリ
 50
90.0
  7
______MEDIUM
 11
-45.45993925440166
 21
101.6025603689899
 31
0.0
 73
     3
  0
ENDBLK
  5
16F
  8
0
  0
BLOCK
  8
0
  2
____-81
 70
     0
 10
0.0
 20
0.0
 30
0.0
  3
____-81
  1

  0
LINE
  5
76D
  8
__-1
  6
CONTINUOUS
 62
     7
 10
-41.62992305069795
 20
106.0914492578788
 30
0.0
 11
-46.62992305069795
 21
106.0914492578788
 31
0.0
  0
LINE
  5
76E
  8
__-1
  6
CONTINUOUS
 62
     7
 10
-41.62992305069795
 20
102.7581159245455
 30
0.0
 11
-46.62992305069795
 21
102.7581159245455
 31
0.0
  0
LINE
  5
76F
  8
__-1
  6
CONTINUOUS
 62
     7
 10
-46.62992305069795
 20
106.0914492578788
 30
0.0
 11
-46.62992305069795
 21
102.7581159245455
 31
0.0
  0
CIRCLE
  5
770
  8
__-1
  6
CONTINUOUS
 62
     7
 10
-46.62992305069795
 20
106.0914492578788
 30
0.0
 40
0.2999816894531264
  0
CIRCLE
  5
771
  8
__-1
  6
CONTINUOUS
 62
     7
 10
-46.62992305069795
 20
102.7581159245455
 30
0.0
 40
0.2999816894531264
  0
INSERT
  5
772
  8
__-1
 62
     7
  2
____-80
 10
0.0
 20
0.0
 30
0.0
  0
ENDBLK
  5
172
  8
0
  0
BLOCK
  8
0
  2
____-82
 70
     0
 10
0.0
 20
0.0
 30
0.0
  3
____-82
  1

  0
TEXT
  5
773
  8
__-1
 62
     7
 10
-46.15658567664716
 20
119.8973368505576
 30
0.0
 40
2.124016203703703
  1
12
  7
______MEDIUM
 11
-46.15658567664716
 21
122.0213530542613
 31
0.0
 73
     3
  0
ENDBLK
  5
175
  8
0
  0
BLOCK
  8
0
  2
____-83
 70
     0
 10
0.0
 20
0.0
 30
0.0
  3
____-83
  1

  0
LINE
  5
774
  8
__-1
  6
CONTINUOUS
 62
     7
 10
-46.58975624956383
 20
117.675781295002
 30
0.0
 11
-42.58975624956383
 21
117.675781295002
 31
0.0
  0
CIRCLE
  5
775
  8
__-1
  6
CONTINUOUS
 62
     7
 10
-46.58975624956383
 20
117.675781295002
 30
0.0
 40
0.2999816894531264
  0
CIRCLE
  5
776
  8
__-1
  6
CONTINUOUS
 62
     7
 10
-42.58975624956383
 20
117.675781295002
 30
0.0
 40
0.2999816894531264
  0
INSERT
  5
777
  8
__-1
 62
     7
  2
____-82
 10
0.0
 20
0.0
 30
0.0
  0
ENDBLK
  5
178
  8
0
  0
BLOCK
  8
0
  2
____-84
 70
     0
 10
0.0
 20
0.0
 30
0.0
  3
____-84
  1

  0
TEXT
  5
778
  8
__-1
 62
     7
 10
-35.50874996959794
 20
118.2374504205626
 30
0.0
 40
2.124016203703703
  1
24
  7
______MEDIUM
 11
-35.50874996959794
 21
120.3614666242663
 31
0.0
 73
     3
  0
ENDBLK
  5
17B
  8
0
  0
BLOCK
  8
0
  2
____-85
 70
     0
 10
0.0
 20
0.0
 30
0.0
  3
____-85
  1

  0
LINE
  5
779
  8
__-1
  6
CONTINUOUS
 62
     7
 10
-31.58975624956337
 20
117.675781295002
 30
0.0
 11
-39.58975624956341
 21
117.675781295002
 31
0.0
  0
CIRCLE
  5
77A
  8
__-1
  6
CONTINUOUS
 62
     7
 10
-31.58975624956337
 20
117.675781295002
 30
0.0
 40
0.2999816894531264
  0
CIRCLE
  5
77B
  8
__-1
  6
CONTINUOUS
 62
     7
 10
-39.58975624956341
 20
117.675781295002
 30
0.0
 40
0.2999816894531264
  0
INSERT
  5
77C
  8
__-1
 62
     7
  2
____-84
 10
0.0
 20
0.0
 30
0.0
  0
ENDBLK
  5
17E
  8
0
  0
BLOCK
  8
0
  2
____-86
 70
     0
 10
0.0
 20
0.0
 30
0.0
  3
____-86
  1

  0
TEXT
  5
77D
  8
__-1
 62
     7
 10
-36.50752443213043
 20
113.911419173186
 30
0.0
 40
2.124016203703703
  1
26
 50
90.0
  7
______MEDIUM
 11
-38.63154063583413
 21
113.911419173186
 31
0.0
 73
     3
  0
ENDBLK
  5
181
  8
0
  0
BLOCK
  8
0
  2
____-87
 70
     0
 10
0.0
 20
0.0
 30
0.0
  3
____-87
  1

  0
LINE
  5
77E
  8
__-1
  6
CONTINUOUS
 62
     7
 10
-35.77600326913978
 20
121.924782591212
 30
0.0
 11
-35.77600326913978
 21
113.258115924545
 31
0.0
  0
CIRCLE
  5
77F
  8
__-1
  6
CONTINUOUS
 62
     7
 10
-35.77600326913978
 20
121.924782591212
 30
0.0
 40
0.2999816894531264
  0
CIRCLE
  5
780
  8
__-1
  6
CONTINUOUS
 62
     7
 10
-35.77600326913978
 20
113.258115924545
 30
0.0
 40
0.2999816894531264
  0
INSERT
  5
781
  8
__-1
 62
     7
  2
____-86
 10
0.0
 20
0.0
 30
0.0
  0
ENDBLK
  5
184
  8
0
  0
BLOCK
  8
0
  2
____-88
 70
     0
 10
0.0
 20
0.0
 30
0.0
  3
____-88
  1

  0
TEXT
  5
782
  8
__-1
 62
     7
 10
-36.49755882469535
 20
110.9228544814495
 30
0.0
 40
2.124016203703703
  1
9
 50
90.0
  7
______MEDIUM
 11
-38.62157502839905
 21
110.9228544814495
 31
0.0
 73
     3
  0
ENDBLK
  5
187
  8
0
  0
BLOCK
  8
0
  2
____-89
 70
     0
 10
0.0
 20
0.0
 30
0.0
  3
____-89
  1

  0
LINE
  5
783
  8
__-1
  6
CONTINUOUS
 62
     7
 10
-37.78118845432498
 20
110.2581159245455
 30
0.0
 11
-35.77600326913979
 21
110.2581159245455
 31
0.0
  0
LINE
  5
784
  8
__-1
  6
CONTINUOUS
 62
     7
 10
-33.77081808395461
 20
113.258115924545
 30
0.0
 11
-35.77600326913979
 21
113.258115924545
 31
0.0
  0
LINE
  5
785
  8
__-1
  6
CONTINUOUS
 62
     7
 10
-35.77600326913979
 20
110.2581159245455
 30
0.0
 11
-35.77600326913979
 21
113.258115924545
 31
0.0
  0
CIRCLE
  5
786
  8
__-1
  6
CONTINUOUS
 62
     7
 10
-35.77600326913979
 20
110.2581159245455
 30
0.0
 40
0.2999816894531264
  0
CIRCLE
  5
787
  8
__-1
  6
CONTINUOUS
 62
     7
 10
-35.77600326913979
 20
113.258115924545
 30
0.0
 40
0.2999816894531264
  0
INSERT
  5
788
  8
__-1
 62
     7
  2
____-88
 10
0.0
 20
0.0
 30
0.0
  0
ENDBLK
  5
18A
  8
0
  0
BLOCK
  8
0
  2
____-90
 70
     0
 10
0.0
 20
0.0
 30
0.0
  3
____-90
  1

  0
TEXT
  5
789
  8
__-1
 62
     7
 10
-44.82325234331362
 20
143.3130048134344
 30
0.0
 40
2.124016203703703
  1
20
  7
______MEDIUM
 11
-44.82325234331362
 21
145.4370210171381
 31
0.0
 73
     3
  0
ENDBLK
  5
18D
  8
0
  0
BLOCK
  8
0
  2
____-91
 70
     0
 10
0.0
 20
0.0
 30
0.0
  3
____-91
  1

  0
LINE
  5
78A
  8
__-1
  6
CONTINUOUS
 62
     7
 10
-46.58975624956383
 20
136.0914492578788
 30
0.0
 11
-46.58975624956383
 21
141.0914492578788
 31
0.0
  0
LINE
  5
78B
  8
__-1
  6
CONTINUOUS
 62
     7
 10
-39.92308958289674
 20
136.0914492578788
 30
0.0
 11
-39.92308958289674
 21
141.0914492578788
 31
0.0
  0
LINE
  5
78C
  8
__-1
  6
CONTINUOUS
 62
     7
 10
-46.58975624956383
 20
141.0914492578788
 30
0.0
 11
-39.92308958289674
 21
141.0914492578788
 31
0.0
  0
CIRCLE
  5
78D
  8
__-1
  6
CONTINUOUS
 62
     7
 10
-46.58975624956383
 20
141.0914492578788
 30
0.0
 40
0.2999816894531264
  0
CIRCLE
  5
78E
  8
__-1
  6
CONTINUOUS
 62
     7
 10
-39.92308958289674
 20
141.0914492578788
 30
0.0
 40
0.2999816894531264
  0
INSERT
  5
78F
  8
__-1
 62
     7
  2
____-90
 10
0.0
 20
0.0
 30
0.0
  0
ENDBLK
  5
190
  8
0
  0
BLOCK
  8
0
  2
____-92
 70
     0
 10
0.0
 20
0.0
 30
0.0
  3
____-92
  1

  0
TEXT
  5
790
  8
__-1
 62
     7
 10
-37.32325234331339
 20
96.64633814676768
 30
0.0
 40
2.124016203703703
  1
25
  7
______MEDIUM
 11
-37.32325234331339
 21
98.77035435047138
 31
0.0
 73
     3
  0
ENDBLK
  5
193
  8
0
  0
BLOCK
  8
0
  2
____-93
 70
     0
 10
0.0
 20
0.0
 30
0.0
  3
____-93
  1

  0
LINE
  5
791
  8
__-1
  6
CONTINUOUS
 62
     7
 10
-31.58975624956337
 20
99.42478259121211
 30
0.0
 11
-31.58975624956337
 21
94.42478259121211
 31
0.0
  0
LINE
  5
792
  8
__-1
  6
CONTINUOUS
 62
     7
 10
-39.92308958289674
 20
99.42478259121211
 30
0.0
 11
-39.92308958289674
 21
94.42478259121211
 31
0.0
  0
LINE
  5
793
  8
__-1
  6
CONTINUOUS
 62
     7
 10
-31.58975624956337
 20
94.42478259121211
 30
0.0
 11
-39.92308958289674
 21
94.42478259121211
 31
0.0
  0
CIRCLE
  5
794
  8
__-1
  6
CONTINUOUS
 62
     7
 10
-31.58975624956337
 20
94.42478259121211
 30
0.0
 40
0.2999816894531264
  0
CIRCLE
  5
795
  8
__-1
  6
CONTINUOUS
 62
     7
 10
-39.92308958289674
 20
94.42478259121211
 30
0.0
 40
0.2999816894531264
  0
INSERT
  5
796
  8
__-1
 62
     7
  2
____-92
 10
0.0
 20
0.0
 30
0.0
  0
ENDBLK
  5
196
  8
0
  0
BLOCK
  8
0
  2
____-94
 70
     0
 10
0.0
 20
0.0
 30
0.0
  3
____-94
  1

  0
TEXT
  5
797
  8
__-1
 62
     7
 10
-44.82325234331362
 20
96.64633814676768
 30
0.0
 40
2.124016203703703
  1
20
  7
______MEDIUM
 11
-44.82325234331362
 21
98.77035435047138
 31
0.0
 73
     3
  0
ENDBLK
  5
199
  8
0
  0
BLOCK
  8
0
  2
____-95
 70
     0
 10
0.0
 20
0.0
 30
0.0
  3
____-95
  1

  0
LINE
  5
798
  8
__-1
  6
CONTINUOUS
 62
     7
 10
-46.58975624956383
 20
99.42478259121211
 30
0.0
 11
-46.58975624956383
 21
94.42478259121211
 31
0.0
  0
LINE
  5
799
  8
__-1
  6
CONTINUOUS
 62
     7
 10
-39.92308958289674
 20
99.42478259121211
 30
0.0
 11
-39.92308958289674
 21
94.42478259121211
 31
0.0
  0
LINE
  5
79A
  8
__-1
  6
CONTINUOUS
 62
     7
 10
-46.58975624956383
 20
94.42478259121211
 30
0.0
 11
-39.92308958289674
 21
94.42478259121211
 31
0.0
  0
CIRCLE
  5
79B
  8
__-1
  6
CONTINUOUS
 62
     7
 10
-46.58975624956383
 20
94.42478259121211
 30
0.0
 40
0.2999816894531264
  0
CIRCLE
  5
79C
  8
__-1
  6
CONTINUOUS
 62
     7
 10
-39.92308958289674
 20
94.42478259121211
 30
0.0
 40
0.2999816894531264
  0
INSERT
  5
79D
  8
__-1
 62
     7
  2
____-94
 10
0.0
 20
0.0
 30
0.0
  0
ENDBLK
  5
19C
  8
0
  0
BLOCK
  8
0
  2
____-96
 70
     0
 10
0.0
 20
0.0
 30
0.0
  3
____-96
  1

  0
TEXT
  5
79E
  8
__-1
 62
     7
 10
11.06940323302392
 20
122.5357309419065
 30
0.0
 40
2.124016203703703
  1
25
 50
90.0
  7
______MEDIUM
 11
8.945387029320214
 21
122.5357309419065
 31
0.0
 73
     3
  0
TEXT
  5
79F
  8
__-1
 62
     7
 10
11.06940323302392
 20
125.6693897960731
 30
0.0
 40
2.124016203703703
  1
程度
 50
90.0
  7
______MEDIUM
 11
8.945387029320214
 21
125.6693897960731
 31
0.0
 73
     3
  0
ENDBLK
  5
19F
  8
0
  0
BLOCK
  8
0
  2
____-97
 70
     0
 10
0.0
 20
0.0
 30
0.0
  3
____-97
  1

  0
LINE
  5
7A0
  8
__-1
  6
CONTINUOUS
 62
     7
 10
8.290958788579474
 20
131.0914492578787
 30
0.0
 11
13.29095878857947
 21
131.0914492578787
 31
0.0
  0
LINE
  5
7A1
  8
__-1
  6
CONTINUOUS
 62
     7
 10
8.290958788579474
 20
122.7581159245454
 30
0.0
 11
13.29095878857947
 21
122.7581159245454
 31
0.0
  0
LINE
  5
7A2
  8
__-1
  6
CONTINUOUS
 62
     7
 10
13.29095878857947
 20
131.0914492578787
 30
0.0
 11
13.29095878857947
 21
122.7581159245454
 31
0.0
  0
CIRCLE
  5
7A3
  8
__-1
  6
CONTINUOUS
 62
     7
 10
13.29095878857947
 20
131.0914492578787
 30
0.0
 40
0.2999816894531246
  0
CIRCLE
  5
7A4
  8
__-1
  6
CONTINUOUS
 62
     7
 10
13.29095878857947
 20
122.7581159245454
 30
0.0
 40
0.2999816894531246
  0
INSERT
  5
7A5
  8
__-1
 62
     7
  2
____-96
 10
0.0
 20
0.0
 30
0.0
  0
ENDBLK
  5
1A2
  8
0
  0
BLOCK
  8
0
  2
____-98
 70
     0
 10
0.0
 20
0.0
 30
0.0
  3
____-98
  1

  0
TEXT
  5
7A6
  8
__-1
 62
     7
 10
11.06940323302392
 20
113.2023976085732
 30
0.0
 40
2.124016203703703
  1
28
 50
90.0
  7
______MEDIUM
 11
8.945387029320214
 21
113.2023976085732
 31
0.0
 73
     3
  0
TEXT
  5
7A7
  8
__-1
 62
     7
 10
11.06940323302392
 20
116.3360564627398
 30
0.0
 40
2.124016203703703
  1
程度
 50
90.0
  7
______MEDIUM
 11
8.945387029320214
 21
116.3360564627398
 31
0.0
 73
     3
  0
ENDBLK
  5
1A5
  8
0
  0
BLOCK
  8
0
  2
____-99
 70
     0
 10
0.0
 20
0.0
 30
0.0
  3
____-99
  1

  0
LINE
  5
7A8
  8
__-1
  6
CONTINUOUS
 62
     7
 10
8.290958788579474
 20
112.924782591212
 30
0.0
 11
13.29095878857947
 21
112.924782591212
 31
0.0
  0
LINE
  5
7A9
  8
__-1
  6
CONTINUOUS
 62
     7
 10
8.290958788579474
 20
122.2581159245454
 30
0.0
 11
13.29095878857947
 21
122.2581159245454
 31
0.0
  0
LINE
  5
7AA
  8
__-1
  6
CONTINUOUS
 62
     7
 10
13.29095878857947
 20
112.924782591212
 30
0.0
 11
13.29095878857947
 21
122.2581159245454
 31
0.0
  0
CIRCLE
  5
7AB
  8
__-1
  6
CONTINUOUS
 62
     7
 10
13.29095878857947
 20
112.924782591212
 30
0.0
 40
0.2999816894531246
  0
CIRCLE
  5
7AC
  8
__-1
  6
CONTINUOUS
 62
     7
 10
13.29095878857947
 20
122.2581159245454
 30
0.0
 40
0.2999816894531246
  0
INSERT
  5
7AD
  8
__-1
 62
     7
  2
____-98
 10
0.0
 20
0.0
 30
0.0
  0
ENDBLK
  5
1A8
  8
0
  0
BLOCK
  8
0
  2
____-100
 70
     0
 10
0.0
 20
0.0
 30
0.0
  3
____-100
  1

  0
TEXT
  5
7AE
  8
__-1
 62
     7
 10
-41.87317096310549
 20
119.8973368505576
 30
0.0
 40
2.124016203703703
  1
9
  7
______MEDIUM
 11
-41.87317096310549
 21
122.0213530542613
 31
0.0
 73
     3
  0
ENDBLK
  5
1AB
  8
0
  0
BLOCK
  8
0
  2
____-101
 70
     0
 10
0.0
 20
0.0
 30
0.0
  3
____-101
  1

  0
LINE
  5
7AF
  8
__-1
  6
CONTINUOUS
 62
     7
 10
-39.58975624956383
 20
117.675781295002
 30
0.0
 11
-42.58975624956383
 21
117.675781295002
 31
0.0
  0
CIRCLE
  5
7B0
  8
__-1
  6
CONTINUOUS
 62
     7
 10
-39.58975624956383
 20
117.675781295002
 30
0.0
 40
0.2999816894531264
  0
CIRCLE
  5
7B1
  8
__-1
  6
CONTINUOUS
 62
     7
 10
-42.58975624956383
 20
117.675781295002
 30
0.0
 40
0.2999816894531264
  0
INSERT
  5
7B2
  8
__-1
 62
     7
  2
____-100
 10
0.0
 20
0.0
 30
0.0
  0
ENDBLK
  5
1AE
  8
0
  0
BLOCK
  8
0
  2
____-102
 70
     0
 10
0.0
 20
0.0
 30
0.0
  3
____-102
  1

  0
INSERT
  5
7B3
  8
__-1
 62
     7
  2
____-75
 10
0.0
 20
0.0
 30
0.0
  0
INSERT
  5
7B4
  8
__-1
 62
     7
  2
____-77
 10
0.0
 20
0.0
 30
0.0
  0
INSERT
  5
7B5
  8
__-1
 62
     7
  2
____-79
 10
0.0
 20
0.0
 30
0.0
  0
INSERT
  5
7B6
  8
__-1
 62
     7
  2
____-81
 10
0.0
 20
0.0
 30
0.0
  0
INSERT
  5
7B7
  8
__-1
 62
     7
  2
____-83
 10
0.0
 20
0.0
 30
0.0
  0
INSERT
  5
7B8
  8
__-1
 62
     7
  2
____-85
 10
0.0
 20
0.0
 30
0.0
  0
INSERT
  5
7B9
  8
__-1
 62
     7
  2
____-87
 10
0.0
 20
0.0
 30
0.0
  0
INSERT
  5
7BA
  8
__-1
 62
     7
  2
____-89
 10
0.0
 20
0.0
 30
0.0
  0
INSERT
  5
7BB
  8
__-1
 62
     7
  2
____-91
 10
0.0
 20
0.0
 30
0.0
  0
INSERT
  5
7BC
  8
__-1
 62
     7
  2
____-93
 10
0.0
 20
0.0
 30
0.0
  0
INSERT
  5
7BD
  8
__-1
 62
     7
  2
____-95
 10
0.0
 20
0.0
 30
0.0
  0
INSERT
  5
7BE
  8
__-1
 62
     7
  2
____-97
 10
0.0
 20
0.0
 30
0.0
  0
INSERT
  5
7BF
  8
__-1
 62
     7
  2
____-99
 10
0.0
 20
0.0
 30
0.0
  0
TEXT
  5
7C0
  8
__-1
 62
     7
 10
-12.7245624243564
 20
127.628692418847
 30
0.0
 40
2.124016203703703
  1
FIX
  7
______MEDIUM
 11
-12.7245624243564
 21
129.7527086225507
 31
0.0
 73
     3
  0
TEXT
  5
7C1
  8
__-1
 62
     7
 10
-15.02680490120824
 20
118.9317937515654
 30
0.0
 40
2.124016203703703
  1
可動障子
  7
______MEDIUM
 11
-15.02680490120824
 21
121.0558099552691
 31
0.0
 73
     3
  0
TEXT
  5
7C2
  8
__-1
 62
     7
 10
-68.21775905226964
 20
126.0615979697142
 30
0.0
 40
2.124016203703703
  1
PB12.5
  7
______MEDIUM
 11
-68.21775905226964
 21
128.1856141734179
 31
0.0
 73
     3
  0
TEXT
  5
7C3
  8
__-1
 62
     7
 10
-68.21775905226964
 20
106.8770042497469
 30
0.0
 40
2.124016203703703
  1
PB12.5
  7
______MEDIUM
 11
-68.21775905226964
 21
109.0010204534506
 31
0.0
 73
     3
  0
POINT
  5
7C4
  8
__-1
  6
CONTINUOUS
 62
     3
 10
-31.58975624956371
 20
127.924782591212
 30
0.0
  0
INSERT
  5
7C5
  8
__-1
 62
     7
  2
____-101
 10
0.0
 20
0.0
 30
0.0
  0
ENDBLK
  5
1B1
  8
0
  0
BLOCK
  8
0
  2
____-103
 70
     0
 10
0.0
 20
0.0
 30
0.0
  3
____-103
  1

  0
ENDBLK
  5
1B5
  8
0
  0
BLOCK
  8
0
  2
____-104
 70
     0
 10
0.0
 20
0.0
 30
0.0
  3
____-104
  1

  0
LINE
  5
7C6
  8
__
  6
CONTINUOUS
 62
     7
 10
334.2511809235801
 20
-120.5990684466033
 30
0.0
 11
-77.22881907641991
 21
-120.5990684466033
 31
0.0
  0
TEXT
  5
7C7
  8
__
 62
     7
 10
285.957033292623
 20
-125.250816960892
 30
0.0
 40
2.112991898148148
  1
2024.05.24
  7
YUGOTHIC_MEDIUM
 11
285.957033292623
 21
-124.1943210118179
 31
0.0
 73
     2
  0
TEXT
  5
7C8
  8
__
 62
     7
 10
311.8149591237304
 20
-125.1502119342251
 30
0.0
 40
2.112991898148148
  1
1:15/1:3/1:2(A3)
  7
YUGOTHIC_MEDIUM
 11
311.8149591237304
 21
-124.093715985151
 31
0.0
 73
     2
  0
INSERT
  5
7C9
  8
__
 62
     7
  2
____-103
 10
0.0
 20
0.0
 30
0.0
  0
TEXT
  5
7CA
  8
__
 62
     7
 10
303.873620763623
 20
-124.1930085117796
 30
0.0
 40
1.584743923611111
  1
SCALE:
  7
YUGOTHIC_MEDIUM
 11
303.873620763623
 21
-122.6082645881685
 31
0.0
 73
     3
  0
TEXT
  5
7CB
  8
__
 62
     7
 10
83.86022797860667
 20
-124.3319017799371
 30
0.0
 40
1.584743923611111
  1
NAME:
  7
YUGOTHIC_MEDIUM
 11
83.86022797860667
 21
-122.747157856326
 31
0.0
 73
     3
  0
TEXT
  5
7CC
  8
__
 62
     7
 10
277.7046117058907
 20
-124.233401779937
 30
0.0
 40
1.584743923611111
  1
DATE:
  7
YUGOTHIC_MEDIUM
 11
277.7046117058907
 21
-122.6486578563259
 31
0.0
 73
     3
  0
TEXT
  5
7CD
  8
__
 62
     7
 10
243.8132708897451
 20
-124.1748526152954
 30
0.0
 40
1.584743923611111
  1
ID:
  7
YUGOTHIC_MEDIUM
 11
243.8132708897451
 21
-122.5901086916843
 31
0.0
 73
     3
  0
TEXT
  5
7CE
  8
__
 62
     7
 10
248.7466836874919
 20
-125.1908169608916
 30
0.0
 40
2.112991898148148
  1
DW-DR008-08
  7
YUGOTHIC_MEDIUM
 11
248.7466836874919
 21
-124.1343210118175
 31
0.0
 73
     2
  0
TEXT
  5
7CF
  8
__
 62
     7
 10
92.74150586574459
 20
-125.2610765484555
 30
0.0
 40
2.124016203703704
  1
木製室内窓　上げ下げタイプ
  7
______MEDIUM
 11
92.74150586574459
 21
-124.1990684466037
 31
0.0
 73
     2
  0
ENDBLK
  5
1B8
  8
0
  0
BLOCK
  8
0
  2
___2D
 70
     0
 10
0.0
 20
0.0
 30
0.0
  3
___2D
  1

  0
INSERT
  5
7D0
  8
__
 62
     7
  2
____-104
 10
0.0
 20
0.0
 30
0.0
  0
ENDBLK
  5
1BB
  8
0
  0
BLOCK
  8
0
  2
____-105
 70
     0
 10
0.0
 20
0.0
 30
0.0
  3
____-105
  1

  0
LINE
  5
7D1
  8
__-1
  6
CONTINUOUS
 62
     7
 10
2073.344377772347
 20
-171.518713509407
 30
0.0
 11
2078.344377772347
 21
-174.518713509407
 31
0.0
  0
LINE
  5
7D2
  8
__-1
  6
CONTINUOUS
 62
     7
 10
2073.344377772347
 20
-174.518713509407
 30
0.0
 11
2078.344377772347
 21
-171.518713509407
 31
0.0
  0
ENDBLK
  5
1BF
  8
0
  0
BLOCK
  8
0
  2
____-106
 70
     0
 10
0.0
 20
0.0
 30
0.0
  3
____-106
  1

  0
POLYLINE
  5
7D3
  8
__-2
  6
CONTINUOUS
 62
     7
 66
     1
 10
0.0
 20
0.0
 30
0.0
 70
   129
  0
VERTEX
  5
7D4
  8
__-2
  6
CONTINUOUS
 62
     7
 10
2078.344377772347
 20
-171.518713509407
 30
0.0
  0
VERTEX
  5
7D5
  8
__-2
  6
CONTINUOUS
 62
     7
 10
2078.344377772347
 20
-174.518713509407
 30
0.0
  0
VERTEX
  5
7D6
  8
__-2
  6
CONTINUOUS
 62
     7
 10
2073.344377772347
 20
-174.518713509407
 30
0.0
  0
VERTEX
  5
7D7
  8
__-2
  6
CONTINUOUS
 62
     7
 10
2073.344377772347
 20
-171.518713509407
 30
0.0
  0
SEQEND
  5
7D8
  8
__-2
  6
CONTINUOUS
 62
     7
  0
INSERT
  5
7D9
  8
__-1
 62
     7
  2
____-105
 10
0.0
 20
0.0
 30
0.0
  0
ENDBLK
  5
1C2
  8
0
  0
BLOCK
  8
0
  2
____-107
 70
     0
 10
0.0
 20
0.0
 30
0.0
  3
____-107
  1

  0
POLYLINE
  5
7DA
  8
__-2
  6
CONTINUOUS
 62
     7
 66
     1
 10
0.0
 20
0.0
 30
0.0
 70
   129
  0
VERTEX
  5
7DB
  8
__-2
  6
CONTINUOUS
 62
     7
 10
2078.344377772347
 20
-171.518713509407
 30
0.0
  0
VERTEX
  5
7DC
  8
__-2
  6
CONTINUOUS
 62
     7
 10
2073.344377772347
 20
-171.518713509407
 30
0.0
  0
VERTEX
  5
7DD
  8
__-2
  6
CONTINUOUS
 62
     7
 10
2073.344377772347
 20
174.981286490593
 30
0.0
  0
VERTEX
  5
7DE
  8
__-2
  6
CONTINUOUS
 62
     7
 10
2078.344377772347
 20
174.981286490593
 30
0.0
  0
SEQEND
  5
7DF
  8
__-2
  6
CONTINUOUS
 62
     7
  0
ENDBLK
  5
1C5
  8
0
  0
BLOCK
  8
0
  2
____-108
 70
     0
 10
0.0
 20
0.0
 30
0.0
  3
____-108
  1

  0
LINE
  5
7E0
  8
__-2
  6
CONTINUOUS
 62
     7
 10
2061.844377772347
 20
-204.518713509407
 30
0.0
 11
2061.844377772347
 21
167.981286490593
 31
0.0
  0
LINE
  5
7E1
  8
__-2
  6
CONTINUOUS
 62
     7
 10
2089.844377772347
 20
-204.518713509407
 30
0.0
 11
2089.844377772347
 21
167.981286490593
 31
0.0
  0
INSERT
  5
7E2
  8
__-1
 62
     7
  2
____-106
 10
0.0
 20
0.0
 30
0.0
  0
POLYLINE
  5
7E3
  8
__-1
  6
CONTINUOUS
 62
     7
 66
     1
 10
0.0
 20
0.0
 30
0.0
 70
   129
  0
VERTEX
  5
7E4
  8
__-1
  6
CONTINUOUS
 62
     7
 10
2066.844377772347
 20
-204.518713509407
 30
0.0
  0
VERTEX
  5
7E5
  8
__-1
  6
CONTINUOUS
 62
     7
 10
2084.844377772347
 20
-204.518713509407
 30
0.0
  0
VERTEX
  5
7E6
  8
__-1
  6
CONTINUOUS
 62
     7
 10
2084.844377772347
 20
-189.518713509407
 30
0.0
  0
VERTEX
  5
7E7
  8
__-1
  6
CONTINUOUS
 62
     7
 10
2089.844377772347
 20
-189.518713509407
 30
0.0
  0
VERTEX
  5
7E8
  8
__-1
  6
CONTINUOUS
 62
     7
 10
2089.844377772347
 20
-164.518713509407
 30
0.0
  0
VERTEX
  5
7E9
  8
__-1
  6
CONTINUOUS
 62
     7
 10
2079.344377772347
 20
-164.518713509407
 30
0.0
  0
VERTEX
  5
7EA
  8
__-1
  6
CONTINUOUS
 62
     7
 10
2079.344377772347
 20
-174.518713509407
 30
0.0
  0
VERTEX
  5
7EB
  8
__-1
  6
CONTINUOUS
 62
     7
 10
2072.344377772347
 20
-174.518713509407
 30
0.0
  0
VERTEX
  5
7EC
  8
__-1
  6
CONTINUOUS
 62
     7
 10
2072.344377772347
 20
-164.518713509407
 30
0.0
  0
VERTEX
  5
7ED
  8
__-1
  6
CONTINUOUS
 62
     7
 10
2061.844377772347
 20
-164.518713509407
 30
0.0
  0
VERTEX
  5
7EE
  8
__-1
  6
CONTINUOUS
 62
     7
 10
2061.844377772347
 20
-189.518713509407
 30
0.0
  0
VERTEX
  5
7EF
  8
__-1
  6
CONTINUOUS
 62
     7
 10
2066.844377772347
 20
-189.518713509407
 30
0.0
  0
SEQEND
  5
7F0
  8
__-1
  6
CONTINUOUS
 62
     7
  0
POLYLINE
  5
7F1
  8
__-1
  6
CONTINUOUS
 62
     7
 66
     1
 10
0.0
 20
0.0
 30
0.0
 70
   129
  0
VERTEX
  5
7F2
  8
__-1
  6
CONTINUOUS
 62
     7
 10
2031.344377772347
 20
550.4812864905931
 30
0.0
  0
VERTEX
  5
7F3
  8
__-1
  6
CONTINUOUS
 62
     7
 10
2121.344377772347
 20
550.4812864905931
 30
0.0
  0
VERTEX
  5
7F4
  8
__-1
  6
CONTINUOUS
 62
     7
 10
2121.344377772347
 20
-229.518713509407
 30
0.0
  0
VERTEX
  5
7F5
  8
__-1
  6
CONTINUOUS
 62
     7
 10
2031.344377772347
 20
-229.518713509407
 30
0.0
  0
SEQEND
  5
7F6
  8
__-1
  6
CONTINUOUS
 62
     7
  0
POLYLINE
  5
7F7
  8
__-1
  6
CONTINUOUS
 62
     7
 66
     1
 10
0.0
 20
0.0
 30
0.0
 70
   129
  0
VERTEX
  5
7F8
  8
__-1
  6
CONTINUOUS
 62
     7
 10
2031.344377772347
 20
-229.518713509407
 30
0.0
  0
VERTEX
  5
7F9
  8
__-1
  6
CONTINUOUS
 62
     7
 10
2121.344377772347
 20
-229.518713509407
 30
0.0
  0
VERTEX
  5
7FA
  8
__-1
  6
CONTINUOUS
 62
     7
 10
2121.344377772347
 20
-204.518713509407
 30
0.0
  0
VERTEX
  5
7FB
  8
__-1
  6
CONTINUOUS
 62
     7
 10
2031.344377772347
 20
-204.518713509407
 30
0.0
  0
SEQEND
  5
7FC
  8
__-1
  6
CONTINUOUS
 62
     7
  0
POLYLINE
  5
7FD
  8
__-2
  6
CONTINUOUS
 62
     7
 66
     1
 10
0.0
 20
0.0
 30
0.0
 70
   128
  0
VERTEX
  5
7FE
  8
__-2
  6
CONTINUOUS
 62
     7
 10
2091.344377772347
 20
525.481286490593
 30
0.0
  0
VERTEX
  5
7FF
  8
__-2
  6
CONTINUOUS
 62
     7
 10
2050.844377772347
 20
525.481286490593
 30
0.0
  0
VERTEX
  5
800
  8
__-2
  6
CONTINUOUS
 62
     7
 10
2050.844377772347
 20
-204.5187135094061
 30
0.0
  0
VERTEX
  5
801
  8
__-2
  6
CONTINUOUS
 62
     7
 10
2060.844377772347
 20
-204.518713509407
 30
0.0
  0
VERTEX
  5
802
  8
__-2
  6
CONTINUOUS
 62
     7
 10
2060.844377772347
 20
491.4812864905921
 30
0.0
  0
VERTEX
  5
803
  8
__-2
  6
CONTINUOUS
 62
     7
 10
2091.344377772347
 20
491.481286490593
 30
0.0
  0
VERTEX
  5
804
  8
__-2
  6
CONTINUOUS
 62
     7
 10
2091.344377772347
 20
525.3214736482728
 30
0.0
  0
SEQEND
  5
805
  8
__-2
  6
CONTINUOUS
 62
     7
  0
POLYLINE
  5
806
  8
__-2
  6
CONTINUOUS
 62
     7
 66
     1
 10
0.0
 20
0.0
 30
0.0
 70
   129
  0
VERTEX
  5
807
  8
__-2
  6
CONTINUOUS
 62
     7
 10
2091.344377772347
 20
167.981286490593
 30
0.0
  0
VERTEX
  5
808
  8
__-2
  6
CONTINUOUS
 62
     7
 10
2100.844377772347
 20
167.981286490593
 30
0.0
  0
VERTEX
  5
809
  8
__-2
  6
CONTINUOUS
 62
     7
 10
2100.844377772347
 20
-204.518713509407
 30
0.0
  0
VERTEX
  5
80A
  8
__-2
  6
CONTINUOUS
 62
     7
 10
2091.344377772347
 20
-204.518713509407
 30
0.0
  0
SEQEND
  5
80B
  8
__-2
  6
CONTINUOUS
 62
     7
  0
INSERT
  5
80C
  8
__-2
 62
     7
  2
____-107
 10
0.0
 20
0.0
 30
0.0
  0
ENDBLK
  5
1C8
  8
0
  0
BLOCK
  8
0
  2
___-4_2D
 70
     0
 10
0.0
 20
0.0
 30
0.0
  3
___-4_2D
  1

  0
INSERT
  5
80D
  8
__-1
 62
     7
  2
____-108
 10
0.0
 20
0.0
 30
0.0
  0
ENDBLK
  5
1CB
  8
0
  0
BLOCK
  8
0
  2
____-109
 70
     0
 10
0.0
 20
0.0
 30
0.0
  3
____-109
  1

  0
TEXT
  5
80E
  8
__-1
 62
     7
 10
236.7531192323809
 20
-84.1546217710159
 30
0.0
 40
2.124016203703704
  1
40
 50
90.0
  7
______MEDIUM
 11
234.6291030286772
 21
-84.1546217710159
 31
0.0
 73
     3
  0
ENDBLK
  5
1CF
  8
0
  0
BLOCK
  8
0
  2
____-110
 70
     0
 10
0.0
 20
0.0
 30
0.0
  3
____-110
  1

  0
LINE
  5
80F
  8
__-1
  6
CONTINUOUS
 62
     7
 10
246.7246747879365
 20
-92.58779234393256
 30
0.0
 11
239.2246747879365
 21
-92.58779234393256
 31
0.0
  0
LINE
  5
810
  8
__-1
  6
CONTINUOUS
 62
     7
 10
246.7246747879365
 20
-72.58779234393256
 30
0.0
 11
239.2246747879365
 21
-72.58779234393256
 31
0.0
  0
LINE
  5
811
  8
__-1
  6
CONTINUOUS
 62
     7
 10
239.2246747879365
 20
-92.58779234393256
 30
0.0
 11
239.2246747879365
 21
-72.58779234393256
 31
0.0
  0
CIRCLE
  5
812
  8
__-1
  6
CONTINUOUS
 62
     7
 10
239.2246747879365
 20
-92.58779234393256
 30
0.0
 40
0.2999816894531193
  0
CIRCLE
  5
813
  8
__-1
  6
CONTINUOUS
 62
     7
 10
239.2246747879365
 20
-72.58779234393256
 30
0.0
 40
0.2999816894531193
  0
INSERT
  5
814
  8
__-1
 62
     7
  2
____-109
 10
0.0
 20
0.0
 30
0.0
  0
ENDBLK
  5
1D2
  8
0
  0
BLOCK
  8
0
  2
____-111
 70
     0
 10
0.0
 20
0.0
 30
0.0
  3
____-111
  1

  0
TEXT
  5
815
  8
__-1
 62
     7
 10
244.2531192323809
 20
-90.4046217710159
 30
0.0
 40
2.124016203703704
  1
15
 50
90.0
  7
______MEDIUM
 11
242.1291030286772
 21
-90.4046217710159
 31
0.0
 73
     3
  0
ENDBLK
  5
1D5
  8
0
  0
BLOCK
  8
0
  2
____-112
 70
     0
 10
0.0
 20
0.0
 30
0.0
  3
____-112
  1

  0
LINE
  5
816
  8
__-1
  6
CONTINUOUS
 62
     7
 10
254.2246747879365
 20
-92.58779234393256
 30
0.0
 11
246.7246747879365
 21
-92.58779234393256
 31
0.0
  0
LINE
  5
817
  8
__-1
  6
CONTINUOUS
 62
     7
 10
254.2246747879365
 20
-85.08779234393256
 30
0.0
 11
246.7246747879365
 21
-85.08779234393256
 31
0.0
  0
LINE
  5
818
  8
__-1
  6
CONTINUOUS
 62
     7
 10
246.7246747879365
 20
-92.58779234393256
 30
0.0
 11
246.7246747879365
 21
-85.08779234393256
 31
0.0
  0
CIRCLE
  5
819
  8
__-1
  6
CONTINUOUS
 62
     7
 10
246.7246747879365
 20
-92.58779234393256
 30
0.0
 40
0.2999816894531193
  0
CIRCLE
  5
81A
  8
__-1
  6
CONTINUOUS
 62
     7
 10
246.7246747879365
 20
-85.08779234393256
 30
0.0
 40
0.2999816894531193
  0
INSERT
  5
81B
  8
__-1
 62
     7
  2
____-111
 10
0.0
 20
0.0
 30
0.0
  0
ENDBLK
  5
1D8
  8
0
  0
BLOCK
  8
0
  2
____-113
 70
     0
 10
0.0
 20
0.0
 30
0.0
  3
____-113
  1

  0
TEXT
  5
81C
  8
__-1
 62
     7
 10
244.2531192323809
 20
-80.4046217710159
 30
0.0
 40
2.124016203703704
  1
25
 50
90.0
  7
______MEDIUM
 11
242.1291030286772
 21
-80.4046217710159
 31
0.0
 73
     3
  0
ENDBLK
  5
1DB
  8
0
  0
BLOCK
  8
0
  2
____-114
 70
     0
 10
0.0
 20
0.0
 30
0.0
  3
____-114
  1

  0
LINE
  5
81D
  8
__-1
  6
CONTINUOUS
 62
     7
 10
254.2246747879365
 20
-72.58779234393256
 30
0.0
 11
246.7246747879365
 21
-72.58779234393256
 31
0.0
  0
LINE
  5
81E
  8
__-1
  6
CONTINUOUS
 62
     7
 10
254.2246747879365
 20
-85.08779234393256
 30
0.0
 11
246.7246747879365
 21
-85.08779234393256
 31
0.0
  0
LINE
  5
81F
  8
__-1
  6
CONTINUOUS
 62
     7
 10
246.7246747879365
 20
-72.58779234393256
 30
0.0
 11
246.7246747879365
 21
-85.08779234393256
 31
0.0
  0
CIRCLE
  5
820
  8
__-1
  6
CONTINUOUS
 62
     7
 10
246.7246747879365
 20
-72.58779234393256
 30
0.0
 40
0.2999816894531193
  0
CIRCLE
  5
821
  8
__-1
  6
CONTINUOUS
 62
     7
 10
246.7246747879365
 20
-85.08779234393256
 30
0.0
 40
0.2999816894531193
  0
INSERT
  5
822
  8
__-1
 62
     7
  2
____-113
 10
0.0
 20
0.0
 30
0.0
  0
ENDBLK
  5
1DE
  8
0
  0
BLOCK
  8
0
  2
____-115
 70
     0
 10
0.0
 20
0.0
 30
0.0
  3
____-115
  1

  0
TEXT
  5
823
  8
__-1
 62
     7
 10
267.996734249742
 20
-98.11623678837701
 30
0.0
 40
2.124016203703704
  1
5
  7
______MEDIUM
 11
267.996734249742
 21
-95.9922205846733
 31
0.0
 73
     3
  0
TEXT
  5
824
  8
__-1
 62
     7
 10
269.5635636768254
 20
-98.11623678837701
 30
0.0
 40
2.124016203703704
  1
～8
  7
______MEDIUM
 11
269.5635636768254
 21
-95.9922205846733
 31
0.0
 73
     3
  0
TEXT
  5
825
  8
__-1
 62
     7
 10
268.1524525657143
 20
-104.1317923439326
 30
0.0
 40
2.124016203703704
  1
程度
  7
______MEDIUM
 11
268.1524525657143
 21
-102.0077761402289
 31
0.0
 73
     3
  0
ENDBLK
  5
1E1
  8
0
  0
BLOCK
  8
0
  2
____-116
 70
     0
 10
0.0
 20
0.0
 30
0.0
  3
____-116
  1

  0
LINE
  5
826
  8
__-1
  6
CONTINUOUS
 62
     7
 10
272.2246747879365
 20
-93.08779234393256
 30
0.0
 11
272.2246747879365
 21
-100.5877923439326
 31
0.0
  0
LINE
  5
827
  8
__-1
  6
CONTINUOUS
 62
     7
 10
269.7246747879365
 20
-93.08779234393256
 30
0.0
 11
269.7246747879365
 21
-100.5877923439326
 31
0.0
  0
LINE
  5
828
  8
__-1
  6
CONTINUOUS
 62
     7
 10
272.2246747879365
 20
-100.5877923439326
 30
0.0
 11
269.7246747879365
 21
-100.5877923439326
 31
0.0
  0
CIRCLE
  5
829
  8
__-1
  6
CONTINUOUS
 62
     7
 10
272.2246747879365
 20
-100.5877923439326
 30
0.0
 40
0.2999816894531477
  0
CIRCLE
  5
82A
  8
__-1
  6
CONTINUOUS
 62
     7
 10
269.7246747879365
 20
-100.5877923439326
 30
0.0
 40
0.2999816894531477
  0
INSERT
  5
82B
  8
__-1
 62
     7
  2
____-115
 10
0.0
 20
0.0
 30
0.0
  0
ENDBLK
  5
1E4
  8
0
  0
BLOCK
  8
0
  2
____-117
 70
     0
 10
0.0
 20
0.0
 30
0.0
  3
____-117
  1

  0
TEXT
  5
82C
  8
__-1
 62
     7
 10
279.496734249742
 20
-98.11623678837701
 30
0.0
 40
2.124016203703704
  1
5
  7
______MEDIUM
 11
279.496734249742
 21
-95.9922205846733
 31
0.0
 73
     3
  0
TEXT
  5
82D
  8
__-1
 62
     7
 10
281.0635636768254
 20
-98.11623678837701
 30
0.0
 40
2.124016203703704
  1
～8
  7
______MEDIUM
 11
281.0635636768254
 21
-95.9922205846733
 31
0.0
 73
     3
  0
TEXT
  5
82E
  8
__-1
 62
     7
 10
279.6524525657143
 20
-104.1317923439326
 30
0.0
 40
2.124016203703704
  1
程度
  7
______MEDIUM
 11
279.6524525657143
 21
-102.0077761402289
 31
0.0
 73
     3
  0
ENDBLK
  5
1E7
  8
0
  0
BLOCK
  8
0
  2
____-118
 70
     0
 10
0.0
 20
0.0
 30
0.0
  3
____-118
  1

  0
LINE
  5
82F
  8
__-1
  6
CONTINUOUS
 62
     7
 10
283.7246747879365
 20
-93.08779234393256
 30
0.0
 11
283.7246747879365
 21
-100.5877923439326
 31
0.0
  0
LINE
  5
830
  8
__-1
  6
CONTINUOUS
 62
     7
 10
281.2246747879365
 20
-93.08779234393256
 30
0.0
 11
281.2246747879365
 21
-100.5877923439326
 31
0.0
  0
LINE
  5
831
  8
__-1
  6
CONTINUOUS
 62
     7
 10
283.7246747879365
 20
-100.5877923439326
 30
0.0
 11
281.2246747879365
 21
-100.5877923439326
 31
0.0
  0
CIRCLE
  5
832
  8
__-1
  6
CONTINUOUS
 62
     7
 10
283.7246747879365
 20
-100.5877923439326
 30
0.0
 40
0.2999816894531477
  0
CIRCLE
  5
833
  8
__-1
  6
CONTINUOUS
 62
     7
 10
281.2246747879365
 20
-100.5877923439326
 30
0.0
 40
0.2999816894531477
  0
INSERT
  5
834
  8
__-1
 62
     7
  2
____-117
 10
0.0
 20
0.0
 30
0.0
  0
ENDBLK
  5
1EA
  8
0
  0
BLOCK
  8
0
  2
____-119
 70
     0
 10
0.0
 20
0.0
 30
0.0
  3
____-119
  1

  0
INSERT
  5
835
  8
__-1
 62
     7
  2
____-110
 10
0.0
 20
0.0
 30
0.0
  0
INSERT
  5
836
  8
__-1
 62
     7
  2
____-112
 10
0.0
 20
0.0
 30
0.0
  0
INSERT
  5
837
  8
__-1
 62
     7
  2
____-114
 10
0.0
 20
0.0
 30
0.0
  0
INSERT
  5
838
  8
__-1
 62
     7
  2
____-116
 10
0.0
 20
0.0
 30
0.0
  0
INSERT
  5
839
  8
__-1
 62
     7
  2
____-118
 10
0.0
 20
0.0
 30
0.0
  0
POLYLINE
  5
83A
  8
__-2
  6
CONTINUOUS
 62
     7
 66
     1
 10
0.0
 20
0.0
 30
0.0
 70
   129
  0
VERTEX
  5
83B
  8
__-2
  6
CONTINUOUS
 62
     7
 10
274.9746747879365
 20
-72.58779234393256
 30
0.0
  0
VERTEX
  5
83C
  8
__-2
  6
CONTINUOUS
 62
     7
 10
269.7246747879365
 20
-72.58779234393256
 30
0.0
  0
VERTEX
  5
83D
  8
__-2
  6
CONTINUOUS
 62
     7
 10
269.7246747879365
 20
-85.08779234393256
 30
0.0
  0
VERTEX
  5
83E
  8
__-2
  6
CONTINUOUS
 62
     7
 10
272.2246747879365
 20
-85.08779234393256
 30
0.0
  0
VERTEX
  5
83F
  8
__-2
  6
CONTINUOUS
 62
     7
 10
272.2246747879365
 20
-92.58779234393256
 30
0.0
  0
VERTEX
  5
840
  8
__-2
  6
CONTINUOUS
 62
     7
 10
281.2246747879365
 20
-92.58779234393256
 30
0.0
  0
VERTEX
  5
841
  8
__-2
  6
CONTINUOUS
 62
     7
 10
281.2246747879365
 20
-85.08779234393256
 30
0.0
  0
VERTEX
  5
842
  8
__-2
  6
CONTINUOUS
 62
     7
 10
283.7246747879365
 20
-85.08779234393256
 30
0.0
  0
VERTEX
  5
843
  8
__-2
  6
CONTINUOUS
 62
     7
 10
283.7246747879365
 20
-72.58779234393256
 30
0.0
  0
VERTEX
  5
844
  8
__-2
  6
CONTINUOUS
 62
     7
 10
278.4746747879365
 20
-72.58779234393256
 30
0.0
  0
VERTEX
  5
845
  8
__-2
  6
CONTINUOUS
 62
     7
 10
278.4746747879365
 20
-77.58779234393256
 30
0.0
  0
VERTEX
  5
846
  8
__-2
  6
CONTINUOUS
 62
     7
 10
274.9746747879365
 20
-77.58779234393256
 30
0.0
  0
SEQEND
  5
847
  8
__-2
  6
CONTINUOUS
 62
     7
  0
POLYLINE
  5
848
  8
__-2
  6
CONTINUOUS
 62
     1
 66
     1
 10
0.0
 20
0.0
 30
0.0
 70
   129
  0
VERTEX
  5
849
  8
__-2
  6
CONTINUOUS
 62
     1
 10
274.9746747879365
 20
-72.58779234393256
 30
0.0
  0
VERTEX
  5
84A
  8
__-2
  6
CONTINUOUS
 62
     1
 10
269.7246747879365
 20
-72.58779234393256
 30
0.0
  0
VERTEX
  5
84B
  8
__-2
  6
CONTINUOUS
 62
     1
 10
269.7246747879365
 20
-85.08779234393256
 30
0.0
  0
VERTEX
  5
84C
  8
__-2
  6
CONTINUOUS
 62
     1
 10
272.2246747879365
 20
-85.08779234393256
 30
0.0
  0
VERTEX
  5
84D
  8
__-2
  6
CONTINUOUS
 62
     1
 10
272.2246747879365
 20
-92.58779234393256
 30
0.0
  0
VERTEX
  5
84E
  8
__-2
  6
CONTINUOUS
 62
     1
 10
281.2246747879365
 20
-92.58779234393256
 30
0.0
  0
VERTEX
  5
84F
  8
__-2
  6
CONTINUOUS
 62
     1
 10
281.2246747879365
 20
-85.08779234393256
 30
0.0
  0
VERTEX
  5
850
  8
__-2
  6
CONTINUOUS
 62
     1
 10
283.7246747879365
 20
-85.08779234393256
 30
0.0
  0
VERTEX
  5
851
  8
__-2
  6
CONTINUOUS
 62
     1
 10
283.7246747879365
 20
-72.58779234393256
 30
0.0
  0
VERTEX
  5
852
  8
__-2
  6
CONTINUOUS
 62
     1
 10
278.4746747879365
 20
-72.58779234393256
 30
0.0
  0
VERTEX
  5
853
  8
__-2
  6
CONTINUOUS
 62
     1
 10
278.4746747879365
 20
-77.58779234393256
 30
0.0
  0
VERTEX
  5
854
  8
__-2
  6
CONTINUOUS
 62
     1
 10
274.9746747879365
 20
-77.58779234393256
 30
0.0
  0
SEQEND
  5
855
  8
__-2
  6
CONTINUOUS
 62
     1
  0
ENDBLK
  5
1ED
  8
0
  0
BLOCK
  8
0
  2
__-__
 70
     0
 10
0.0
 20
0.0
 30
0.0
  3
__-__
  1

  0
POLYLINE
  5
856
  8
__-2
  6
CONTINUOUS
 62
     7
 66
     1
 10
0.0
 20
0.0
 30
0.0
 70
   129
  0
VERTEX
  5
857
  8
__-2
  6
CONTINUOUS
 62
     7
 10
-22.6866475859748
 20
-0.5715000000000003
 30
0.0
  0
VERTEX
  5
858
  8
__-2
  6
CONTINUOUS
 62
     7
 10
22.6866475859748
 20
-0.5715000000000003
 30
0.0
  0
VERTEX
  5
859
  8
__-2
  6
CONTINUOUS
 62
     7
 10
22.6866475859748
 20
-6.794499999999999
 30
0.0
  0
VERTEX
  5
85A
  8
__-2
  6
CONTINUOUS
 62
     7
 10
-22.6866475859748
 20
-6.794499999999999
 30
0.0
  0
SEQEND
  5
85B
  8
__-2
  6
CONTINUOUS
 62
     7
  0
TEXT
  5
85C
  8
__-2
 62
     7
 10
-21.48535315755208
 20
-4.286249999999999
 30
0.0
 40
2.389518229166667
  1
部分横断面図　90幅　S=1：3
  7
______MEDIUM
 72
     1
 11
0.0
 21
-1.896731770833333
 31
0.0
 73
     3
  0
ENDBLK
  5
1F0
  8
0
  0
BLOCK
  8
0
  2
__-__-1
 70
     0
 10
0.0
 20
0.0
 30
0.0
  3
__-__-1
  1

  0
POLYLINE
  5
85D
  8
__-2
  6
CONTINUOUS
 62
     7
 66
     1
 10
0.0
 20
0.0
 30
0.0
 70
   129
  0
VERTEX
  5
85E
  8
__-2
  6
CONTINUOUS
 62
     7
 10
-13.8678046875
 20
-0.5715000000000003
 30
0.0
  0
VERTEX
  5
85F
  8
__-2
  6
CONTINUOUS
 62
     7
 10
13.8678046875
 20
-0.5715000000000003
 30
0.0
  0
VERTEX
  5
860
  8
__-2
  6
CONTINUOUS
 62
     7
 10
13.8678046875
 20
-6.794499999999999
 30
0.0
  0
VERTEX
  5
861
  8
__-2
  6
CONTINUOUS
 62
     7
 10
-13.8678046875
 20
-6.794499999999999
 30
0.0
  0
SEQEND
  5
862
  8
__-2
  6
CONTINUOUS
 62
     7
  0
TEXT
  5
863
  8
__-2
 62
     7
 10
-12.69073131510417
 20
-4.286249999999999
 30
0.0
 40
2.389518229166667
  1
正面図　S=1：15
  7
______MEDIUM
 72
     1
 11
0.0
 21
-1.896731770833333
 31
0.0
 73
     3
  0
ENDBLK
  5
1F3
  8
0
  0
BLOCK
  8
0
  2
__-__-2
 70
     0
 10
0.0
 20
0.0
 30
0.0
  3
__-__-2
  1

  0
POLYLINE
  5
864
  8
__-2
  6
CONTINUOUS
 62
     7
 66
     1
 10
0.0
 20
0.0
 30
0.0
 70
   129
  0
VERTEX
  5
865
  8
__-2
  6
CONTINUOUS
 62
     7
 10
-15.4553046875
 20
-0.5715000000000003
 30
0.0
  0
VERTEX
  5
866
  8
__-2
  6
CONTINUOUS
 62
     7
 10
15.4553046875
 20
-0.5715000000000003
 30
0.0
  0
VERTEX
  5
867
  8
__-2
  6
CONTINUOUS
 62
     7
 10
15.4553046875
 20
-6.794499999999999
 30
0.0
  0
VERTEX
  5
868
  8
__-2
  6
CONTINUOUS
 62
     7
 10
-15.4553046875
 20
-6.794499999999999
 30
0.0
  0
SEQEND
  5
869
  8
__-2
  6
CONTINUOUS
 62
     7
  0
TEXT
  5
86A
  8
__-2
 62
     7
 10
-14.27378714192708
 20
-4.286249999999999
 30
0.0
 40
2.389518229166667
  1
縦断面図　S=1：15
  7
______MEDIUM
 72
     1
 11
0.0
 21
-1.896731770833333
 31
0.0
 73
     3
  0
ENDBLK
  5
1F6
  8
0
  0
BLOCK
  8
0
  2
__-__-3
 70
     0
 10
0.0
 20
0.0
 30
0.0
  3
__-__-3
  1

  0
POLYLINE
  5
86B
  8
__-2
  6
CONTINUOUS
 62
     7
 66
     1
 10
0.0
 20
0.0
 30
0.0
 70
   129
  0
VERTEX
  5
86C
  8
__-2
  6
CONTINUOUS
 62
     7
 10
-17.74896313476562
 20
-0.5715000000000003
 30
0.0
  0
VERTEX
  5
86D
  8
__-2
  6
CONTINUOUS
 62
     7
 10
17.74896313476562
 20
-0.5715000000000003
 30
0.0
  0
VERTEX
  5
86E
  8
__-2
  6
CONTINUOUS
 62
     7
 10
17.74896313476562
 20
-6.794499999999999
 30
0.0
  0
VERTEX
  5
86F
  8
__-2
  6
CONTINUOUS
 62
     7
 10
-17.74896313476562
 20
-6.794499999999999
 30
0.0
  0
SEQEND
  5
870
  8
__-2
  6
CONTINUOUS
 62
     7
  0
TEXT
  5
871
  8
__-2
 62
     7
 10
-16.56055608723958
 20
-4.286249999999999
 30
0.0
 40
2.389518229166667
  1
部分縦断面図　S=1：2
  7
______MEDIUM
 72
     1
 11
0.0
 21
-1.896731770833333
 31
0.0
 73
     3
  0
ENDBLK
  5
1F9
  8
0
  0
BLOCK
  8
0
  2
_______
 70
     0
 10
0.0
 20
0.0
 30
0.0
  3
_______
  1

  0
LINE
  5
872
  8
__-2
  6
CONTINUOUS
 62
     7
 10
9.052878217442107
 20
0.0
 30
0.0
 11
0.0
 21
0.0
 31
0.0
  0
LINE
  5
873
  8
__-2
  6
CONTINUOUS
 62
     7
 10
0.0
 20
0.0
 30
0.0
 11
-13.079267424854
 21
22.65395570562765
 31
0.0
  0
TEXT
  5
874
  8
__-2
 62
     7
 10
10.24350321744211
 20
-0.5362222222222224
 30
0.0
 40
2.124016203703704
  1
ガイド
  7
______MEDIUM
 11
10.24350321744211
 21
1.587793981481481
 31
0.0
 73
     3
  0
ENDBLK
  5
1FC
  8
0
  0
BLOCK
  8
0
  2
_______-1
 70
     0
 10
0.0
 20
0.0
 30
0.0
  3
_______-1
  1

  0
LINE
  5
875
  8
__-2
  6
CONTINUOUS
 62
     7
 10
-9.052878217442107
 20
0.0
 30
0.0
 11
0.0
 21
0.0
 31
0.0
  0
LINE
  5
876
  8
__-2
  6
CONTINUOUS
 62
     7
 10
0.0
 20
0.0
 30
0.0
 11
13.079267424854
 21
-22.65395570562765
 31
0.0
  0
TEXT
  5
877
  8
__-2
 62
     7
 10
-30.25306011873809
 20
-0.5362222222222224
 30
0.0
 40
2.124016203703704
  1
ピボットシュー
  7
______MEDIUM
 11
-30.25306011873809
 21
1.587793981481481
 31
0.0
 73
     3
  0
ENDBLK
  5
1FF
  8
0
  0
BLOCK
  8
0
  2
_______-2
 70
     0
 10
0.0
 20
0.0
 30
0.0
  3
_______-2
  1

  0
LINE
  5
878
  8
__-2
  6
CONTINUOUS
 62
     7
 10
-9.052878217442107
 20
0.0
 30
0.0
 11
0.0
 21
0.0
 31
0.0
  0
LINE
  5
879
  8
__-2
  6
CONTINUOUS
 62
     7
 10
0.0
 20
0.0
 30
0.0
 11
17.19821485789342
 21
-29.78818193335731
 31
0.0
  0
TEXT
  5
87A
  8
__-2
 62
     7
 10
-18.96417055697898
 20
-0.5362222222222224
 30
0.0
 40
2.124016203703704
  1
ガイド
  7
______MEDIUM
 11
-18.96417055697898
 21
1.587793981481481
 31
0.0
 73
     3
  0
ENDBLK
  5
202
  8
0
  0
BLOCK
  8
0
  2
_______-3
 70
     0
 10
0.0
 20
0.0
 30
0.0
  3
_______-3
  1

  0
LINE
  5
87B
  8
__-2
  6
CONTINUOUS
 62
     7
 10
-9.052878217442107
 20
0.0
 30
0.0
 11
0.0
 21
0.0
 31
0.0
  0
LINE
  5
87C
  8
__-2
  6
CONTINUOUS
 62
     7
 10
0.0
 20
0.0
 30
0.0
 11
16.68757538230771
 21
-28.90372841729253
 31
0.0
  0
TEXT
  5
87D
  8
__-2
 62
     7
 10
-57.79728620355323
 20
-0.5362222222222224
 30
0.0
 40
2.124016203703704
  1
切欠きの表面にはめる(金物を隠す為)
  7
______MEDIUM
 11
-57.79728620355323
 21
1.587793981481481
 31
0.0
 73
     3
  0
ENDBLK
  5
205
  8
0
  0
BLOCK
  8
0
  2
_______-4
 70
     0
 10
0.0
 20
0.0
 30
0.0
  3
_______-4
  1

  0
LINE
  5
87E
  8
__-2
  6
CONTINUOUS
 62
     7
 10
-9.052878217442107
 20
0.0
 30
0.0
 11
0.0
 21
0.0
 31
0.0
  0
LINE
  5
87F
  8
__-2
  6
CONTINUOUS
 62
     7
 10
0.0
 20
0.0
 30
0.0
 11
12.929267424854
 21
-22.39414808449236
 31
0.0
  0
TEXT
  5
880
  8
__-2
 62
     7
 10
-24.60861432855322
 20
-0.5362222222222224
 30
0.0
 40
2.124016203703704
  1
バランサー
  7
______MEDIUM
 11
-24.60861432855322
 21
1.587793981481481
 31
0.0
 73
     3
  0
ENDBLK
  5
208
  8
0
  0
BLOCK
  8
0
  2
_______-5
 70
     0
 10
0.0
 20
0.0
 30
0.0
  3
_______-5
  1

  0
LINE
  5
881
  8
__-2
  6
CONTINUOUS
 62
     7
 10
4.526439108721092
 20
0.0
 30
0.0
 11
0.0
 21
0.0
 31
0.0
  0
LINE
  5
882
  8
__-2
  6
CONTINUOUS
 62
     7
 10
0.0
 20
0.0
 30
0.0
 11
-13.07926742485399
 21
-22.65395570562766
 31
0.0
  0
TEXT
  5
883
  8
__-2
 62
     7
 10
5.717064108721092
 20
-0.5362222222222224
 30
0.0
 40
2.124016203703704
  1
掘り込み手掛けの代わり
  7
______MEDIUM
 11
5.717064108721092
 21
1.587793981481481
 31
0.0
 73
     3
  0
ENDBLK
  5
20B
  8
0
  0
BLOCK
  8
0
  2
_______-6
 70
     0
 10
0.0
 20
0.0
 30
0.0
  3
_______-6
  1

  0
LINE
  5
884
  8
__-2
  6
CONTINUOUS
 62
     7
 10
9.052878217442107
 20
0.0
 30
0.0
 11
0.0
 21
0.0
 31
0.0
  0
LINE
  5
885
  8
__-2
  6
CONTINUOUS
 62
     7
 10
0.0
 20
0.0
 30
0.0
 11
-14.06995760171446
 21
24.36988142650942
 31
0.0
  0
ENDBLK
  5
20E
  8
0
  0
BLOCK
  8
0
  2
_______-7
 70
     0
 10
0.0
 20
0.0
 30
0.0
  3
_______-7
  1

  0
LINE
  5
886
  8
__-2
  6
CONTINUOUS
 62
     7
 10
9.052878217442107
 20
0.0
 30
0.0
 11
0.0
 21
0.0
 31
0.0
  0
LINE
  5
887
  8
__-2
  6
CONTINUOUS
 62
     7
 10
0.0
 20
0.0
 30
0.0
 11
-13.079267424854
 21
22.65395570562765
 31
0.0
  0
TEXT
  5
888
  8
__-2
 62
     7
 10
10.24350321744211
 20
-0.5362222222222224
 30
0.0
 40
2.124016203703704
  1
ガイド
  7
______MEDIUM
 11
10.24350321744211
 21
1.587793981481481
 31
0.0
 73
     3
  0
ENDBLK
  5
211
  8
0
  0
BLOCK
  8
0
  2
____-120
 70
     0
 10
0.0
 20
0.0
 30
0.0
  3
____-120
  1

  0
LINE
  5
889
  8
__-1
  6
CONTINUOUS
 62
     7
 10
1684.675063679458
 20
787.2523321883898
 30
0.0
 11
1687.675063679458
 21
791.2523321883898
 31
0.0
  0
LINE
  5
88A
  8
__-1
  6
CONTINUOUS
 62
     7
 10
1687.675063679458
 20
787.2523321883898
 30
0.0
 11
1684.675063679458
 21
791.2523321883898
 31
0.0
  0
ENDBLK
  5
214
  8
0
  0
BLOCK
  8
0
  2
____-121
 70
     0
 10
0.0
 20
0.0
 30
0.0
  3
____-121
  1

  0
POLYLINE
  5
88B
  8
__-2
  6
CONTINUOUS
 62
     7
 66
     1
 10
0.0
 20
0.0
 30
0.0
 70
   129
  0
VERTEX
  5
88C
  8
__-2
  6
CONTINUOUS
 62
     7
 10
1684.675063679458
 20
791.2523321883898
 30
0.0
  0
VERTEX
  5
88D
  8
__-2
  6
CONTINUOUS
 62
     7
 10
1687.675063679458
 20
791.2523321883898
 30
0.0
  0
VERTEX
  5
88E
  8
__-2
  6
CONTINUOUS
 62
     7
 10
1687.675063679458
 20
787.2523321883898
 30
0.0
  0
VERTEX
  5
88F
  8
__-2
  6
CONTINUOUS
 62
     7
 10
1684.675063679458
 20
787.2523321883898
 30
0.0
  0
SEQEND
  5
890
  8
__-2
  6
CONTINUOUS
 62
     7
  0
INSERT
  5
891
  8
__-1
 62
     7
  2
____-120
 10
0.0
 20
0.0
 30
0.0
  0
ENDBLK
  5
217
  8
0
  0
BLOCK
  8
0
  2
____-122
 70
     0
 10
0.0
 20
0.0
 30
0.0
  3
____-122
  1

  0
LINE
  5
892
  8
__-1
  6
CONTINUOUS
 62
     7
 10
1709.675063679458
 20
758.7523321883898
 30
0.0
 11
1712.675063679458
 21
763.7523321883898
 31
0.0
  0
LINE
  5
893
  8
__-1
  6
CONTINUOUS
 62
     7
 10
1712.675063679458
 20
758.7523321883898
 30
0.0
 11
1709.675063679458
 21
763.7523321883898
 31
0.0
  0
ENDBLK
  5
21A
  8
0
  0
BLOCK
  8
0
  2
____-123
 70
     0
 10
0.0
 20
0.0
 30
0.0
  3
____-123
  1

  0
POLYLINE
  5
894
  8
__-2
  6
CONTINUOUS
 62
     7
 66
     1
 10
0.0
 20
0.0
 30
0.0
 70
   129
  0
VERTEX
  5
895
  8
__-2
  6
CONTINUOUS
 62
     7
 10
1709.675063679458
 20
763.7523321883898
 30
0.0
  0
VERTEX
  5
896
  8
__-2
  6
CONTINUOUS
 62
     7
 10
1712.675063679458
 20
763.7523321883898
 30
0.0
  0
VERTEX
  5
897
  8
__-2
  6
CONTINUOUS
 62
     7
 10
1712.675063679458
 20
758.7523321883898
 30
0.0
  0
VERTEX
  5
898
  8
__-2
  6
CONTINUOUS
 62
     7
 10
1709.675063679458
 20
758.7523321883898
 30
0.0
  0
SEQEND
  5
899
  8
__-2
  6
CONTINUOUS
 62
     7
  0
INSERT
  5
89A
  8
__-1
 62
     7
  2
____-122
 10
0.0
 20
0.0
 30
0.0
  0
ENDBLK
  5
21D
  8
0
  0
BLOCK
  8
0
  2
____-124
 70
     0
 10
0.0
 20
0.0
 30
0.0
  3
____-124
  1

  0
POLYLINE
  5
89B
  8
__-2
  6
CONTINUOUS
 62
     7
 66
     1
 10
0.0
 20
0.0
 30
0.0
 70
   129
  0
VERTEX
  5
89C
  8
__-2
  6
CONTINUOUS
 62
     7
 10
1821.306971939544
 20
787.2523321883898
 30
0.0
  0
VERTEX
  5
89D
  8
__-2
  6
CONTINUOUS
 62
     7
 10
1687.675063679458
 20
787.2523321883898
 30
0.0
  0
VERTEX
  5
89E
  8
__-2
  6
CONTINUOUS
 62
     7
 10
1687.675063679458
 20
791.2523321883898
 30
0.0
  0
VERTEX
  5
89F
  8
__-2
  6
CONTINUOUS
 62
     7
 10
1821.306971939544
 20
791.2523321883898
 30
0.0
  0
SEQEND
  5
8A0
  8
__-2
  6
CONTINUOUS
 62
     7
  0
ENDBLK
  5
220
  8
0
  0
BLOCK
  8
0
  2
____-125
 70
     0
 10
0.0
 20
0.0
 30
0.0
  3
____-125
  1

  0
POLYLINE
  5
8A1
  8
__-2
  6
CONTINUOUS
 62
     7
 66
     1
 10
0.0
 20
0.0
 30
0.0
 70
   129
  0
VERTEX
  5
8A2
  8
__-2
  6
CONTINUOUS
 62
     7
 10
1821.306971939544
 20
758.7523321883898
 30
0.0
  0
VERTEX
  5
8A3
  8
__-2
  6
CONTINUOUS
 62
     7
 10
1712.675063679458
 20
758.7523321883898
 30
0.0
  0
VERTEX
  5
8A4
  8
__-2
  6
CONTINUOUS
 62
     7
 10
1712.675063679458
 20
763.7523321883898
 30
0.0
  0
VERTEX
  5
8A5
  8
__-2
  6
CONTINUOUS
 62
     7
 10
1821.306971939544
 20
763.7523321883898
 30
0.0
  0
SEQEND
  5
8A6
  8
__-2
  6
CONTINUOUS
 62
     7
  0
ENDBLK
  5
223
  8
0
  0
BLOCK
  8
0
  2
___-5_2D
 70
     0
 10
0.0
 20
0.0
 30
0.0
  3
___-5_2D
  1

  0
POLYLINE
  5
8A7
  8
__-1
  6
CONTINUOUS
 62
     7
 66
     1
 10
0.0
 20
0.0
 30
0.0
 70
   128
  0
VERTEX
  5
8A8
  8
__-1
  6
CONTINUOUS
 62
     7
 10
1821.306971939544
 20
826.2523321883898
 30
0.0
  0
VERTEX
  5
8A9
  8
__-1
  6
CONTINUOUS
 62
     7
 10
1669.675063679458
 20
826.2523321883898
 30
0.0
  0
VERTEX
  5
8AA
  8
__-1
  6
CONTINUOUS
 62
     7
 10
1669.675063679458
 20
716.2523321883898
 30
0.0
  0
VERTEX
  5
8AB
  8
__-1
  6
CONTINUOUS
 62
     7
 10
1821.306971939544
 20
716.2523321883898
 30
0.0
  0
SEQEND
  5
8AC
  8
__-1
  6
CONTINUOUS
 62
     7
  0
LINE
  5
8AD
  8
__-1
  6
CONTINUOUS
 62
     7
 10
1821.306971939544
 20
758.7523321883898
 30
0.0
 11
1709.675063679458
 21
758.7523321883898
 31
0.0
  0
LINE
  5
8AE
  8
__-1
  6
CONTINUOUS
 62
     7
 10
1709.675063679458
 20
763.7523321883898
 30
0.0
 11
1821.306971939544
 21
763.7523321883898
 31
0.0
  0
LINE
  5
8AF
  8
__-2
  6
CONTINUOUS
 62
     7
 10
1496.158798424768
 20
803.7523321883898
 30
0.0
 11
1669.675063679458
 21
803.7523321883898
 31
0.0
  0
LINE
  5
8B0
  8
__-2
  6
CONTINUOUS
 62
     7
 10
1496.158798424768
 20
816.2523321883898
 30
0.0
 11
1669.675063679458
 21
816.2523321883898
 31
0.0
  0
LINE
  5
8B1
  8
__-2
  6
ISO-10______
 62
     8
 10
1496.158798424768
 20
771.2523321883898
 30
0.0
 11
1669.675063679458
 21
771.2523321883898
 31
0.0
  0
LINE
  5
8B2
  8
__-2
  6
CONTINUOUS
 62
   251
 10
1496.158798424768
 20
803.7523321883898
 30
0.0
 11
1669.675063679458
 21
803.7523321883898
 31
0.0
  0
LINE
  5
8B3
  8
__-2
  6
CONTINUOUS
 62
   251
 10
1496.158798424768
 20
738.7523321883898
 30
0.0
 11
1669.675063679458
 21
738.7523321883898
 31
0.0
  0
LINE
  5
8B4
  8
__-2
  6
ISO-10______
 62
     8
 10
1496.158798424768
 20
771.2523321883898
 30
0.0
 11
1669.675063679458
 21
771.2523321883898
 31
0.0
  0
LINE
  5
8B5
  8
__-2
  6
CONTINUOUS
 62
     7
 10
1496.158798424768
 20
726.2523321883898
 30
0.0
 11
1669.675063679458
 21
726.2523321883898
 31
0.0
  0
LINE
  5
8B6
  8
__-2
  6
CONTINUOUS
 62
     7
 10
1496.158798424768
 20
738.7523321883898
 30
0.0
 11
1669.675063679458
 21
738.7523321883898
 31
0.0
  0
LINE
  5
8B7
  8
__-2
  6
CONTINUOUS
 62
     7
 10
1669.675063679458
 20
726.2523321883898
 30
0.0
 11
1669.675063679458
 21
816.2523321883898
 31
0.0
  0
LINE
  5
8B8
  8
__-2
  6
CONTINUOUS
 62
     7
 10
1496.158798424768
 20
816.2523321883898
 30
0.0
 11
1669.675063679458
 21
816.2523321883898
 31
0.0
  0
LINE
  5
8B9
  8
__-2
  6
CONTINUOUS
 62
     7
 10
1496.158798424768
 20
726.2523321883898
 30
0.0
 11
1669.675063679458
 21
726.2523321883898
 31
0.0
  0
LINE
  5
8BA
  8
__-2
  6
CONTINUOUS
 62
     7
 10
1669.675063679458
 20
803.7523321883898
 30
0.0
 11
1669.675063679458
 21
826.2523321883898
 31
0.0
  0
LINE
  5
8BB
  8
__-2
  6
_____-5
 62
     7
 10
1694.675063679458
 20
776.7523321883898
 30
0.0
 11
1821.306971939544
 21
776.7523321883898
 31
0.0
  0
LINE
  5
8BC
  8
__-2
  6
_____-5
 62
     7
 10
1694.675063679458
 20
801.7523321883898
 30
0.0
 11
1821.306971939544
 21
801.7523321883898
 31
0.0
  0
LINE
  5
8BD
  8
__-2
  6
CONTINUOUS
 62
     7
 10
1709.675063679458
 20
764.7523321883898
 30
0.0
 11
1709.675063679458
 21
757.7523321883898
 31
0.0
  0
LINE
  5
8BE
  8
__-2
  6
CONTINUOUS
 62
     7
 10
1709.675063679458
 20
757.7523321883898
 30
0.0
 11
1719.675063679458
 21
757.7523321883898
 31
0.0
  0
LINE
  5
8BF
  8
__-2
  6
CONTINUOUS
 62
     7
 10
1709.675063679458
 20
764.7523321883898
 30
0.0
 11
1719.675063679458
 21
764.7523321883898
 31
0.0
  0
POLYLINE
  5
8C0
  8
__-2
  6
CONTINUOUS
 62
     7
 66
     1
 10
0.0
 20
0.0
 30
0.0
 70
   129
  0
VERTEX
  5
8C1
  8
__-2
  6
CONTINUOUS
 62
     7
 10
1694.675063679458
 20
786.2523321883898
 30
0.0
  0
VERTEX
  5
8C2
  8
__-2
  6
CONTINUOUS
 62
     7
 10
1697.675063679458
 20
786.2523321883898
 30
0.0
  0
VERTEX
  5
8C3
  8
__-2
  6
CONTINUOUS
 62
     7
 10
1697.675063679458
 20
776.7523321883898
 30
0.0
  0
VERTEX
  5
8C4
  8
__-2
  6
CONTINUOUS
 62
     7
 10
1694.675063679458
 20
776.7523321883898
 30
0.0
  0
SEQEND
  5
8C5
  8
__-2
  6
CONTINUOUS
 62
     7
  0
POLYLINE
  5
8C6
  8
__-2
  6
CONTINUOUS
 62
     7
 66
     1
 10
0.0
 20
0.0
 30
0.0
 70
   129
  0
VERTEX
  5
8C7
  8
__-2
  6
CONTINUOUS
 62
     7
 10
1694.675063679458
 20
746.2523321883898
 30
0.0
  0
VERTEX
  5
8C8
  8
__-2
  6
CONTINUOUS
 62
     7
 10
1697.675063679458
 20
746.2523321883898
 30
0.0
  0
VERTEX
  5
8C9
  8
__-2
  6
CONTINUOUS
 62
     7
 10
1697.675063679458
 20
736.2523321883903
 30
0.0
  0
VERTEX
  5
8CA
  8
__-2
  6
CONTINUOUS
 62
     7
 10
1694.675063679458
 20
736.2523321883903
 30
0.0
  0
SEQEND
  5
8CB
  8
__-2
  6
CONTINUOUS
 62
     7
  0
POLYLINE
  5
8CC
  8
__-1
  6
CONTINUOUS
 62
     7
 66
     1
 10
0.0
 20
0.0
 30
0.0
 70
   128
  0
VERTEX
  5
8CD
  8
__-1
  6
CONTINUOUS
 62
     7
 10
1821.306971939544
 20
791.2523321883898
 30
0.0
  0
VERTEX
  5
8CE
  8
__-1
  6
CONTINUOUS
 62
     7
 10
1684.675063679458
 20
791.2523321883898
 30
0.0
  0
VERTEX
  5
8CF
  8
__-1
  6
CONTINUOUS
 62
     7
 10
1684.675063679458
 20
787.2523321883898
 30
0.0
  0
VERTEX
  5
8D0
  8
__-1
  6
CONTINUOUS
 62
     7
 10
1821.306971939544
 20
787.2523321883898
 30
0.0
  0
SEQEND
  5
8D1
  8
__-1
  6
CONTINUOUS
 62
     7
  0
POLYLINE
  5
8D2
  8
__-1
  6
CONTINUOUS
 62
     7
 66
     1
 10
0.0
 20
0.0
 30
0.0
 70
   129
  0
VERTEX
  5
8D3
  8
__-1
  6
CONTINUOUS
 62
     7
 10
1719.675063679458
 20
775.2523321883898
 30
0.0
  0
VERTEX
  5
8D4
  8
__-1
  6
CONTINUOUS
 62
     7
 10
1695.675063679458
 20
775.2523321883898
 30
0.0
  0
VERTEX
  5
8D5
  8
__-1
  6
CONTINUOUS
 62
     7
 10
1695.675063679458
 20
747.2523321883898
 30
0.0
  0
VERTEX
  5
8D6
  8
__-1
  6
CONTINUOUS
 62
     7
 10
1719.675063679458
 20
747.2523321883898
 30
0.0
  0
VERTEX
  5
8D7
  8
__-1
  6
CONTINUOUS
 62
     7
 10
1719.675063679458
 20
757.7523321883898
 30
0.0
  0
VERTEX
  5
8D8
  8
__-1
  6
CONTINUOUS
 62
     7
 10
1709.675063679458
 20
757.7523321883898
 30
0.0
  0
VERTEX
  5
8D9
  8
__-1
  6
CONTINUOUS
 62
     7
 10
1709.675063679458
 20
764.7523321883898
 30
0.0
  0
VERTEX
  5
8DA
  8
__-1
  6
CONTINUOUS
 62
     7
 10
1719.675063679458
 20
764.7523321883898
 30
0.0
  0
SEQEND
  5
8DB
  8
__-1
  6
CONTINUOUS
 62
     7
  0
LINE
  5
8DC
  8
__-1
  6
CONTINUOUS
 62
     7
 10
1719.675063679458
 20
775.2523321883898
 30
0.0
 11
1821.306971939544
 21
775.2523321883898
 31
0.0
  0
LINE
  5
8DD
  8
__-1
  6
CONTINUOUS
 62
     7
 10
1821.306971939544
 20
747.2523321883898
 30
0.0
 11
1719.675063679458
 21
747.2523321883898
 31
0.0
  0
POLYLINE
  5
8DE
  8
__-1
  6
CONTINUOUS
 62
     7
 66
     1
 10
0.0
 20
0.0
 30
0.0
 70
   129
  0
VERTEX
  5
8DF
  8
__-1
  6
CONTINUOUS
 62
     7
 10
1694.675063679458
 20
786.2523321883897
 30
0.0
  0
VERTEX
  5
8E0
  8
__-1
  6
CONTINUOUS
 62
     7
 10
1684.675063679458
 20
786.2523321883897
 30
0.0
  0
VERTEX
  5
8E1
  8
__-1
  6
CONTINUOUS
 62
     7
 10
1684.675063679458
 20
792.2523321883898
 30
0.0
  0
VERTEX
  5
8E2
  8
__-1
  6
CONTINUOUS
 62
     7
 10
1694.675063679458
 20
792.2523321883898
 30
0.0
  0
VERTEX
  5
8E3
  8
__-1
  6
CONTINUOUS
 62
     7
 10
1694.675063679458
 20
826.2523321883897
 30
0.0
  0
VERTEX
  5
8E4
  8
__-1
  6
CONTINUOUS
 62
     7
 10
1669.675063679458
 20
826.2523321883898
 30
0.0
  0
VERTEX
  5
8E5
  8
__-1
  6
CONTINUOUS
 62
     7
 10
1669.675063679458
 20
803.7523321883898
 30
0.0
  0
VERTEX
  5
8E6
  8
__-1
  6
CONTINUOUS
 62
     7
 10
1661.675063679458
 20
803.7523321883898
 30
0.0
  0
VERTEX
  5
8E7
  8
__-1
  6
CONTINUOUS
 62
     7
 10
1661.675063679458
 20
738.7523321883897
 30
0.0
  0
VERTEX
  5
8E8
  8
__-1
  6
CONTINUOUS
 62
     7
 10
1669.675063679458
 20
738.7523321883897
 30
0.0
  0
VERTEX
  5
8E9
  8
__-1
  6
CONTINUOUS
 62
     7
 10
1669.675063679458
 20
716.2523321883897
 30
0.0
  0
VERTEX
  5
8EA
  8
__-1
  6
CONTINUOUS
 62
     7
 10
1694.675063679458
 20
716.2523321883898
 30
0.0
  0
SEQEND
  5
8EB
  8
__-1
  6
CONTINUOUS
 62
     7
  0
POLYLINE
  5
8EC
  8
__-1
  6
CONTINUOUS
 62
     7
 66
     1
 10
0.0
 20
0.0
 30
0.0
 70
   129
  0
VERTEX
  5
8ED
  8
__-1
  6
CONTINUOUS
 62
     7
 10
1670.675063679458
 20
774.2523321883893
 30
0.0
  0
VERTEX
  5
8EE
  8
__-1
  6
CONTINUOUS
 62
     7
 10
1694.675063679458
 20
774.2523321883893
 30
0.0
  0
VERTEX
  5
8EF
  8
__-1
  6
CONTINUOUS
 62
     7
 10
1694.675063679458
 20
748.2523321883884
 30
0.0
  0
VERTEX
  5
8F0
  8
__-1
  6
CONTINUOUS
 62
     7
 10
1670.675063679458
 20
748.2523321883884
 30
0.0
  0
SEQEND
  5
8F1
  8
__-1
  6
CONTINUOUS
 62
     7
  0
POLYLINE
  5
8F2
  8
__-2
  6
CONTINUOUS
 62
     7
 66
     1
 10
0.0
 20
0.0
 30
0.0
 70
   129
  0
VERTEX
  5
8F3
  8
__-2
  6
CONTINUOUS
 62
     7
 10
1692.175063679458
 20
774.2523321883893
 30
0.0
  0
VERTEX
  5
8F4
  8
__-2
  6
CONTINUOUS
 62
     7
 10
1694.675063679458
 20
774.2523321883893
 30
0.0
  0
VERTEX
  5
8F5
  8
__-2
  6
CONTINUOUS
 62
     7
 10
1694.675063679458
 20
748.2523321883889
 30
0.0
  0
VERTEX
  5
8F6
  8
__-2
  6
CONTINUOUS
 62
     7
 10
1692.175063679458
 20
748.2523321883889
 30
0.0
  0
SEQEND
  5
8F7
  8
__-2
  6
CONTINUOUS
 62
     7
  0
LINE
  5
8F8
  8
__-2
  6
_____-5
 62
     7
 10
1670.675063679458
 20
774.2523321883893
 30
0.0
 11
1692.175063679458
 21
748.2523321883889
 31
0.0
  0
LINE
  5
8F9
  8
__-2
  6
_____-5
 62
     7
 10
1692.175063679458
 20
774.2523321883893
 30
0.0
 11
1670.675063679458
 21
748.2523321883884
 31
0.0
  0
POLYLINE
  5
8FA
  8
__-1
  6
CONTINUOUS
 62
     7
 66
     1
 10
0.0
 20
0.0
 30
0.0
 70
   129
  0
VERTEX
  5
8FB
  8
__-1
  6
CONTINUOUS
 62
     7
 10
1649.675063679458
 20
803.7523321883898
 30
0.0
  0
VERTEX
  5
8FC
  8
__-1
  6
CONTINUOUS
 62
     7
 10
1661.675063679458
 20
803.7523321883898
 30
0.0
  0
VERTEX
  5
8FD
  8
__-1
  6
CONTINUOUS
 62
     7
 10
1661.675063679458
 20
738.7523321883898
 30
0.0
  0
VERTEX
  5
8FE
  8
__-1
  6
CONTINUOUS
 62
     7
 10
1649.675063679458
 20
738.7523321883898
 30
0.0
  0
SEQEND
  5
8FF
  8
__-1
  6
CONTINUOUS
 62
     7
  0
INSERT
  5
900
  8
__-1
 62
     7
  2
____-121
 10
0.0
 20
0.0
 30
0.0
  0
INSERT
  5
901
  8
__-1
 62
     7
  2
____-123
 10
0.0
 20
0.0
 30
0.0
  0
POLYLINE
  5
902
  8
__-2
  6
CONTINUOUS
 62
     1
 66
     1
 10
0.0
 20
0.0
 30
0.0
 70
   129
  0
VERTEX
  5
903
  8
__-2
  6
CONTINUOUS
 62
     1
 10
1692.175063679458
 20
774.2523321883893
 30
0.0
  0
VERTEX
  5
904
  8
__-2
  6
CONTINUOUS
 62
     1
 10
1694.675063679458
 20
774.2523321883893
 30
0.0
  0
VERTEX
  5
905
  8
__-2
  6
CONTINUOUS
 62
     1
 10
1694.675063679458
 20
748.2523321883889
 30
0.0
  0
VERTEX
  5
906
  8
__-2
  6
CONTINUOUS
 62
     1
 10
1692.175063679458
 20
748.2523321883889
 30
0.0
  0
SEQEND
  5
907
  8
__-2
  6
CONTINUOUS
 62
     1
  0
INSERT
  5
908
  8
__-2
 62
     7
  2
____-124
 10
0.0
 20
0.0
 30
0.0
  0
INSERT
  5
909
  8
__-2
 62
     7
  2
____-125
 10
0.0
 20
0.0
 30
0.0
  0
ENDBLK
  5
226
  8
0
  0
BLOCK
  8
0
  2
____-126
 70
     0
 10
0.0
 20
0.0
 30
0.0
  3
____-126
  1

  0
TEXT
  5
90A
  8
__-1
 62
     7
 10
113.6522990902035
 20
115.4078717839204
 30
0.0
 40
2.124016203703703
  1
110
 50
90.0
  7
______MEDIUM
 11
111.5282828864998
 21
115.4078717839204
 31
0.0
 73
     3
  0
ENDBLK
  5
22A
  8
0
  0
BLOCK
  8
0
  2
____-127
 70
     0
 10
0.0
 20
0.0
 30
0.0
  3
____-127
  1

  0
LINE
  5
90B
  8
__-1
  6
CONTINUOUS
 62
     7
 10
105.8738546457591
 20
99.42478259121205
 30
0.0
 11
115.8738546457591
 21
99.42478259121205
 31
0.0
  0
LINE
  5
90C
  8
__-1
  6
CONTINUOUS
 62
     7
 10
105.8738546457591
 20
136.0914492578787
 30
0.0
 11
115.8738546457591
 21
136.0914492578787
 31
0.0
  0
LINE
  5
90D
  8
__-1
  6
CONTINUOUS
 62
     7
 10
115.8738546457591
 20
99.42478259121205
 30
0.0
 11
115.8738546457591
 21
136.0914492578787
 31
0.0
  0
CIRCLE
  5
90E
  8
__-1
  6
CONTINUOUS
 62
     7
 10
115.8738546457591
 20
99.42478259121205
 30
0.0
 40
0.2999816894531193
  0
CIRCLE
  5
90F
  8
__-1
  6
CONTINUOUS
 62
     7
 10
115.8738546457591
 20
136.0914492578787
 30
0.0
 40
0.2999816894531193
  0
INSERT
  5
910
  8
__-1
 62
     7
  2
____-126
 10
0.0
 20
0.0
 30
0.0
  0
ENDBLK
  5
22D
  8
0
  0
BLOCK
  8
0
  2
____-128
 70
     0
 10
0.0
 20
0.0
 30
0.0
  3
____-128
  1

  0
TEXT
  5
911
  8
__-1
 62
     7
 10
60.06832378226131
 20
146.6463381467676
 30
0.0
 40
2.124016203703703
  1
25
  7
______MEDIUM
 11
60.06832378226131
 21
148.7703543504713
 31
0.0
 73
     3
  0
ENDBLK
  5
230
  8
0
  0
BLOCK
  8
0
  2
____-129
 70
     0
 10
0.0
 20
0.0
 30
0.0
  3
____-129
  1

  0
LINE
  5
912
  8
__-1
  6
CONTINUOUS
 62
     7
 10
65.80181987601132
 20
139.4247825912121
 30
0.0
 11
65.80181987601132
 21
144.4247825912121
 31
0.0
  0
LINE
  5
913
  8
__-1
  6
CONTINUOUS
 62
     7
 10
57.46848654267795
 20
139.4247825912121
 30
0.0
 11
57.46848654267795
 21
144.4247825912121
 31
0.0
  0
LINE
  5
914
  8
__-1
  6
CONTINUOUS
 62
     7
 10
65.80181987601132
 20
144.4247825912121
 30
0.0
 11
57.46848654267795
 21
144.4247825912121
 31
0.0
  0
CIRCLE
  5
915
  8
__-1
  6
CONTINUOUS
 62
     7
 10
65.80181987601132
 20
144.4247825912121
 30
0.0
 40
0.2999816894531193
  0
CIRCLE
  5
916
  8
__-1
  6
CONTINUOUS
 62
     7
 10
57.46848654267795
 20
144.4247825912121
 30
0.0
 40
0.2999816894531264
  0
INSERT
  5
917
  8
__-1
 62
     7
  2
____-128
 10
0.0
 20
0.0
 30
0.0
  0
ENDBLK
  5
233
  8
0
  0
BLOCK
  8
0
  2
____-130
 70
     0
 10
0.0
 20
0.0
 30
0.0
  3
____-130
  1

  0
TEXT
  5
918
  8
__-1
 62
     7
 10
48.54009751932119
 20
132.8579531641287
 30
0.0
 40
2.124016203703703
  1
10
 50
90.0
  7
______MEDIUM
 11
46.41608131561749
 21
132.8579531641287
 31
0.0
 73
     3
  0
TEXT
  5
919
  8
__-1
 62
     7
 10
54.05565307487674
 20
131.6025603689898
 30
0.0
 40
2.124016203703703
  1
チリ
 50
90.0
  7
______MEDIUM
 11
51.93163687117304
 21
131.6025603689898
 31
0.0
 73
     3
  0
ENDBLK
  5
236
  8
0
  0
BLOCK
  8
0
  2
____-131
 70
     0
 10
0.0
 20
0.0
 30
0.0
  3
____-131
  1

  0
LINE
  5
91A
  8
__-1
  6
CONTINUOUS
 62
     7
 10
55.76165307487675
 20
136.0914492578787
 30
0.0
 11
50.76165307487675
 21
136.0914492578787
 31
0.0
  0
LINE
  5
91B
  8
__-1
  6
CONTINUOUS
 62
     7
 10
55.76165307487675
 20
132.7581159245454
 30
0.0
 11
50.76165307487675
 21
132.7581159245454
 31
0.0
  0
LINE
  5
91C
  8
__-1
  6
CONTINUOUS
 62
     7
 10
50.76165307487675
 20
136.0914492578787
 30
0.0
 11
50.76165307487675
 21
132.7581159245454
 31
0.0
  0
CIRCLE
  5
91D
  8
__-1
  6
CONTINUOUS
 62
     7
 10
50.76165307487675
 20
136.0914492578787
 30
0.0
 40
0.2999816894531264
  0
CIRCLE
  5
91E
  8
__-1
  6
CONTINUOUS
 62
     7
 10
50.76165307487675
 20
132.7581159245454
 30
0.0
 40
0.2999816894531264
  0
INSERT
  5
91F
  8
__-1
 62
     7
  2
____-130
 10
0.0
 20
0.0
 30
0.0
  0
ENDBLK
  5
239
  8
0
  0
BLOCK
  8
0
  2
____-132
 70
     0
 10
0.0
 20
0.0
 30
0.0
  3
____-132
  1

  0
TEXT
  5
920
  8
__-1
 62
     7
 10
48.54009751932119
 20
99.52461983079539
 30
0.0
 40
2.124016203703703
  1
10
 50
90.0
  7
______MEDIUM
 11
46.41608131561749
 21
99.52461983079539
 31
0.0
 73
     3
  0
TEXT
  5
921
  8
__-1
 62
     7
 10
54.05565307487674
 20
98.26922703565651
 30
0.0
 40
2.124016203703703
  1
チリ
 50
90.0
  7
______MEDIUM
 11
51.93163687117304
 21
98.26922703565651
 31
0.0
 73
     3
  0
ENDBLK
  5
23C
  8
0
  0
BLOCK
  8
0
  2
____-133
 70
     0
 10
0.0
 20
0.0
 30
0.0
  3
____-133
  1

  0
LINE
  5
922
  8
__-1
  6
CONTINUOUS
 62
     7
 10
55.76165307487675
 20
102.7581159245454
 30
0.0
 11
50.76165307487675
 21
102.7581159245454
 31
0.0
  0
LINE
  5
923
  8
__-1
  6
CONTINUOUS
 62
     7
 10
55.76165307487675
 20
99.42478259121205
 30
0.0
 11
50.76165307487675
 21
99.42478259121205
 31
0.0
  0
LINE
  5
924
  8
__-1
  6
CONTINUOUS
 62
     7
 10
50.76165307487675
 20
102.7581159245454
 30
0.0
 11
50.76165307487675
 21
99.42478259121205
 31
0.0
  0
CIRCLE
  5
925
  8
__-1
  6
CONTINUOUS
 62
     7
 10
50.76165307487675
 20
102.7581159245454
 30
0.0
 40
0.2999816894531264
  0
CIRCLE
  5
926
  8
__-1
  6
CONTINUOUS
 62
     7
 10
50.76165307487675
 20
99.42478259121205
 30
0.0
 40
0.2999816894531264
  0
INSERT
  5
927
  8
__-1
 62
     7
  2
____-132
 10
0.0
 20
0.0
 30
0.0
  0
ENDBLK
  5
23F
  8
0
  0
BLOCK
  8
0
  2
____-134
 70
     0
 10
0.0
 20
0.0
 30
0.0
  3
____-134
  1

  0
TEXT
  5
928
  8
__-1
 62
     7
 10
51.23499044892796
 20
116.5640035172242
 30
0.0
 40
2.124016203703703
  1
12
  7
______MEDIUM
 11
51.23499044892796
 21
118.6880197209279
 31
0.0
 73
     3
  0
ENDBLK
  5
242
  8
0
  0
BLOCK
  8
0
  2
____-135
 70
     0
 10
0.0
 20
0.0
 30
0.0
  3
____-135
  1

  0
LINE
  5
929
  8
__-1
  6
CONTINUOUS
 62
     7
 10
50.80181987601129
 20
114.3424479616686
 30
0.0
 11
54.80181987601129
 21
114.3424479616686
 31
0.0
  0
CIRCLE
  5
92A
  8
__-1
  6
CONTINUOUS
 62
     7
 10
50.80181987601129
 20
114.3424479616686
 30
0.0
 40
0.2999816894531264
  0
CIRCLE
  5
92B
  8
__-1
  6
CONTINUOUS
 62
     7
 10
54.80181987601129
 20
114.3424479616686
 30
0.0
 40
0.2999816894531264
  0
INSERT
  5
92C
  8
__-1
 62
     7
  2
____-134
 10
0.0
 20
0.0
 30
0.0
  0
ENDBLK
  5
245
  8
0
  0
BLOCK
  8
0
  2
____-136
 70
     0
 10
0.0
 20
0.0
 30
0.0
  3
____-136
  1

  0
TEXT
  5
92D
  8
__-1
 62
     7
 10
55.51840516246962
 20
116.5640035172242
 30
0.0
 40
2.124016203703703
  1
9
  7
______MEDIUM
 11
55.51840516246962
 21
118.6880197209279
 31
0.0
 73
     3
  0
ENDBLK
  5
248
  8
0
  0
BLOCK
  8
0
  2
____-137
 70
     0
 10
0.0
 20
0.0
 30
0.0
  3
____-137
  1

  0
LINE
  5
92E
  8
__-1
  6
CONTINUOUS
 62
     7
 10
57.80181987601129
 20
114.3424479616686
 30
0.0
 11
54.80181987601129
 21
114.3424479616686
 31
0.0
  0
CIRCLE
  5
92F
  8
__-1
  6
CONTINUOUS
 62
     7
 10
57.80181987601129
 20
114.3424479616686
 30
0.0
 40
0.2999816894531264
  0
CIRCLE
  5
930
  8
__-1
  6
CONTINUOUS
 62
     7
 10
54.80181987601129
 20
114.3424479616686
 30
0.0
 40
0.2999816894531264
  0
INSERT
  5
931
  8
__-1
 62
     7
  2
____-136
 10
0.0
 20
0.0
 30
0.0
  0
ENDBLK
  5
24B
  8
0
  0
BLOCK
  8
0
  2
____-138
 70
     0
 10
0.0
 20
0.0
 30
0.0
  3
____-138
  1

  0
TEXT
  5
932
  8
__-1
 62
     7
 10
61.88282615597676
 20
114.9041170872292
 30
0.0
 40
2.124016203703703
  1
24
  7
______MEDIUM
 11
61.88282615597676
 21
117.0281332909329
 31
0.0
 73
     3
  0
ENDBLK
  5
24E
  8
0
  0
BLOCK
  8
0
  2
____-139
 70
     0
 10
0.0
 20
0.0
 30
0.0
  3
____-139
  1

  0
LINE
  5
933
  8
__-1
  6
CONTINUOUS
 62
     7
 10
65.80181987601132
 20
114.3424479616686
 30
0.0
 11
57.80181987601129
 21
114.3424479616686
 31
0.0
  0
CIRCLE
  5
934
  8
__-1
  6
CONTINUOUS
 62
     7
 10
65.80181987601132
 20
114.3424479616686
 30
0.0
 40
0.2999816894531193
  0
CIRCLE
  5
935
  8
__-1
  6
CONTINUOUS
 62
     7
 10
57.80181987601129
 20
114.3424479616686
 30
0.0
 40
0.2999816894531264
  0
INSERT
  5
936
  8
__-1
 62
     7
  2
____-138
 10
0.0
 20
0.0
 30
0.0
  0
ENDBLK
  5
251
  8
0
  0
BLOCK
  8
0
  2
____-140
 70
     0
 10
0.0
 20
0.0
 30
0.0
  3
____-140
  1

  0
TEXT
  5
937
  8
__-1
 62
     7
 10
60.88405169344426
 20
110.7447525065193
 30
0.0
 40
2.124016203703703
  1
26
 50
90.0
  7
______MEDIUM
 11
58.76003548974056
 21
110.7447525065193
 31
0.0
 73
     3
  0
ENDBLK
  5
254
  8
0
  0
BLOCK
  8
0
  2
____-141
 70
     0
 10
0.0
 20
0.0
 30
0.0
  3
____-141
  1

  0
LINE
  5
938
  8
__-1
  6
CONTINUOUS
 62
     7
 10
61.61557285643492
 20
118.7581159245452
 30
0.0
 11
61.61557285643492
 21
110.0914492578783
 31
0.0
  0
CIRCLE
  5
939
  8
__-1
  6
CONTINUOUS
 62
     7
 10
61.61557285643492
 20
118.7581159245452
 30
0.0
 40
0.2999816894531264
  0
CIRCLE
  5
93A
  8
__-1
  6
CONTINUOUS
 62
     7
 10
61.61557285643492
 20
110.0914492578783
 30
0.0
 40
0.2999816894531264
  0
INSERT
  5
93B
  8
__-1
 62
     7
  2
____-140
 10
0.0
 20
0.0
 30
0.0
  0
ENDBLK
  5
257
  8
0
  0
BLOCK
  8
0
  2
____-142
 70
     0
 10
0.0
 20
0.0
 30
0.0
  3
____-142
  1

  0
TEXT
  5
93C
  8
__-1
 62
     7
 10
60.89401730087934
 20
102.3698079828964
 30
0.0
 40
2.124016203703703
  1
9.5
 50
90.0
  7
______MEDIUM
 11
58.77000109717564
 21
102.3698079828964
 31
0.0
 73
     3
  0
ENDBLK
  5
25A
  8
0
  0
BLOCK
  8
0
  2
____-143
 70
     0
 10
0.0
 20
0.0
 30
0.0
  3
____-143
  1

  0
LINE
  5
93D
  8
__-1
  6
CONTINUOUS
 62
     7
 10
59.61038767124973
 20
106.9247825912121
 30
0.0
 11
61.61557285643491
 21
106.9247825912121
 31
0.0
  0
LINE
  5
93E
  8
__-1
  6
CONTINUOUS
 62
     7
 10
63.62075804162009
 20
110.0914492578784
 30
0.0
 11
61.61557285643491
 21
110.0914492578784
 31
0.0
  0
LINE
  5
93F
  8
__-1
  6
CONTINUOUS
 62
     7
 10
61.61557285643491
 20
106.9247825912121
 30
0.0
 11
61.61557285643491
 21
102.3698079828964
 31
0.0
  0
LINE
  5
940
  8
__-1
  6
CONTINUOUS
 62
     7
 10
61.61557285643491
 20
106.9247825912121
 30
0.0
 11
61.61557285643491
 21
110.0914492578784
 31
0.0
  0
CIRCLE
  5
941
  8
__-1
  6
CONTINUOUS
 62
     7
 10
61.61557285643491
 20
106.9247825912121
 30
0.0
 40
0.2999816894531264
  0
CIRCLE
  5
942
  8
__-1
  6
CONTINUOUS
 62
     7
 10
61.61557285643491
 20
110.0914492578784
 30
0.0
 40
0.2999816894531264
  0
INSERT
  5
943
  8
__-1
 62
     7
  2
____-142
 10
0.0
 20
0.0
 30
0.0
  0
ENDBLK
  5
25D
  8
0
  0
BLOCK
  8
0
  2
____-144
 70
     0
 10
0.0
 20
0.0
 30
0.0
  3
____-144
  1

  0
TEXT
  5
944
  8
__-1
 62
     7
 10
52.56832378226129
 20
146.6463381467677
 30
0.0
 40
2.124016203703703
  1
20
  7
______MEDIUM
 11
52.56832378226129
 21
148.7703543504714
 31
0.0
 73
     3
  0
ENDBLK
  5
260
  8
0
  0
BLOCK
  8
0
  2
____-145
 70
     0
 10
0.0
 20
0.0
 30
0.0
  3
____-145
  1

  0
LINE
  5
945
  8
__-1
  6
CONTINUOUS
 62
     7
 10
50.80181987601129
 20
139.4247825912121
 30
0.0
 11
50.80181987601129
 21
144.4247825912121
 31
0.0
  0
LINE
  5
946
  8
__-1
  6
CONTINUOUS
 62
     7
 10
57.46848654267795
 20
139.4247825912121
 30
0.0
 11
57.46848654267795
 21
144.4247825912121
 31
0.0
  0
LINE
  5
947
  8
__-1
  6
CONTINUOUS
 62
     7
 10
50.80181987601129
 20
144.4247825912121
 30
0.0
 11
57.46848654267795
 21
144.4247825912121
 31
0.0
  0
CIRCLE
  5
948
  8
__-1
  6
CONTINUOUS
 62
     7
 10
50.80181987601129
 20
144.4247825912121
 30
0.0
 40
0.2999816894531264
  0
CIRCLE
  5
949
  8
__-1
  6
CONTINUOUS
 62
     7
 10
57.46848654267795
 20
144.4247825912121
 30
0.0
 40
0.2999816894531264
  0
INSERT
  5
94A
  8
__-1
 62
     7
  2
____-144
 10
0.0
 20
0.0
 30
0.0
  0
ENDBLK
  5
263
  8
0
  0
BLOCK
  8
0
  2
____-146
 70
     0
 10
0.0
 20
0.0
 30
0.0
  3
____-146
  1

  0
TEXT
  5
94B
  8
__-1
 62
     7
 10
60.06832378226131
 20
93.31300481343429
 30
0.0
 40
2.124016203703703
  1
25
  7
______MEDIUM
 11
60.06832378226131
 21
95.437021017138
 31
0.0
 73
     3
  0
ENDBLK
  5
266
  8
0
  0
BLOCK
  8
0
  2
____-147
 70
     0
 10
0.0
 20
0.0
 30
0.0
  3
____-147
  1

  0
LINE
  5
94C
  8
__-1
  6
CONTINUOUS
 62
     7
 10
65.80181987601132
 20
96.09144925787872
 30
0.0
 11
65.80181987601132
 21
91.09144925787872
 31
0.0
  0
LINE
  5
94D
  8
__-1
  6
CONTINUOUS
 62
     7
 10
57.46848654267795
 20
96.09144925787872
 30
0.0
 11
57.46848654267795
 21
91.09144925787872
 31
0.0
  0
LINE
  5
94E
  8
__-1
  6
CONTINUOUS
 62
     7
 10
65.80181987601132
 20
91.09144925787872
 30
0.0
 11
57.46848654267795
 21
91.09144925787872
 31
0.0
  0
CIRCLE
  5
94F
  8
__-1
  6
CONTINUOUS
 62
     7
 10
65.80181987601132
 20
91.09144925787872
 30
0.0
 40
0.2999816894531193
  0
CIRCLE
  5
950
  8
__-1
  6
CONTINUOUS
 62
     7
 10
57.46848654267795
 20
91.09144925787872
 30
0.0
 40
0.2999816894531264
  0
INSERT
  5
951
  8
__-1
 62
     7
  2
____-146
 10
0.0
 20
0.0
 30
0.0
  0
ENDBLK
  5
269
  8
0
  0
BLOCK
  8
0
  2
____-148
 70
     0
 10
0.0
 20
0.0
 30
0.0
  3
____-148
  1

  0
TEXT
  5
952
  8
__-1
 62
     7
 10
52.56832378226129
 20
93.31300481343426
 30
0.0
 40
2.124016203703703
  1
20
  7
______MEDIUM
 11
52.56832378226129
 21
95.43702101713797
 31
0.0
 73
     3
  0
ENDBLK
  5
26C
  8
0
  0
BLOCK
  8
0
  2
____-149
 70
     0
 10
0.0
 20
0.0
 30
0.0
  3
____-149
  1

  0
LINE
  5
953
  8
__-1
  6
CONTINUOUS
 62
     7
 10
50.80181987601129
 20
96.09144925787871
 30
0.0
 11
50.80181987601129
 21
91.09144925787871
 31
0.0
  0
LINE
  5
954
  8
__-1
  6
CONTINUOUS
 62
     7
 10
57.46848654267795
 20
96.09144925787871
 30
0.0
 11
57.46848654267795
 21
91.09144925787871
 31
0.0
  0
LINE
  5
955
  8
__-1
  6
CONTINUOUS
 62
     7
 10
50.80181987601129
 20
91.09144925787871
 30
0.0
 11
57.46848654267795
 21
91.09144925787871
 31
0.0
  0
CIRCLE
  5
956
  8
__-1
  6
CONTINUOUS
 62
     7
 10
50.80181987601129
 20
91.09144925787871
 30
0.0
 40
0.2999816894531264
  0
CIRCLE
  5
957
  8
__-1
  6
CONTINUOUS
 62
     7
 10
57.46848654267795
 20
91.09144925787871
 30
0.0
 40
0.2999816894531264
  0
INSERT
  5
958
  8
__-1
 62
     7
  2
____-148
 10
0.0
 20
0.0
 30
0.0
  0
ENDBLK
  5
26F
  8
0
  0
BLOCK
  8
0
  2
____-150
 70
     0
 10
0.0
 20
0.0
 30
0.0
  3
____-150
  1

  0
TEXT
  5
959
  8
__-1
 62
     7
 10
108.4609793585985
 20
119.3690642752399
 30
0.0
 40
2.124016203703703
  1
25
 50
90.0
  7
______MEDIUM
 11
106.3369631548948
 21
119.3690642752399
 31
0.0
 73
     3
  0
TEXT
  5
95A
  8
__-1
 62
     7
 10
108.4609793585985
 20
122.5027231294065
 30
0.0
 40
2.124016203703703
  1
程度
 50
90.0
  7
______MEDIUM
 11
106.3369631548948
 21
122.5027231294065
 31
0.0
 73
     3
  0
ENDBLK
  5
272
  8
0
  0
BLOCK
  8
0
  2
____-151
 70
     0
 10
0.0
 20
0.0
 30
0.0
  3
____-151
  1

  0
LINE
  5
95B
  8
__-1
  6
CONTINUOUS
 62
     7
 10
105.6825349141541
 20
127.9247825912121
 30
0.0
 11
110.6825349141541
 21
127.9247825912121
 31
0.0
  0
LINE
  5
95C
  8
__-1
  6
CONTINUOUS
 62
     7
 10
105.6825349141541
 20
119.5914492578787
 30
0.0
 11
110.6825349141541
 21
119.5914492578787
 31
0.0
  0
LINE
  5
95D
  8
__-1
  6
CONTINUOUS
 62
     7
 10
110.6825349141541
 20
127.9247825912121
 30
0.0
 11
110.6825349141541
 21
119.5914492578787
 31
0.0
  0
CIRCLE
  5
95E
  8
__-1
  6
CONTINUOUS
 62
     7
 10
110.6825349141541
 20
127.9247825912121
 30
0.0
 40
0.2999816894531193
  0
CIRCLE
  5
95F
  8
__-1
  6
CONTINUOUS
 62
     7
 10
110.6825349141541
 20
119.5914492578787
 30
0.0
 40
0.2999816894531193
  0
INSERT
  5
960
  8
__-1
 62
     7
  2
____-150
 10
0.0
 20
0.0
 30
0.0
  0
ENDBLK
  5
275
  8
0
  0
BLOCK
  8
0
  2
____-152
 70
     0
 10
0.0
 20
0.0
 30
0.0
  3
____-152
  1

  0
TEXT
  5
961
  8
__-1
 62
     7
 10
108.4609793585985
 20
110.0357309419065
 30
0.0
 40
2.124016203703703
  1
28
 50
90.0
  7
______MEDIUM
 11
106.3369631548948
 21
110.0357309419065
 31
0.0
 73
     3
  0
TEXT
  5
962
  8
__-1
 62
     7
 10
108.4609793585985
 20
113.1693897960732
 30
0.0
 40
2.124016203703703
  1
程度
 50
90.0
  7
______MEDIUM
 11
106.3369631548948
 21
113.1693897960732
 31
0.0
 73
     3
  0
ENDBLK
  5
278
  8
0
  0
BLOCK
  8
0
  2
____-153
 70
     0
 10
0.0
 20
0.0
 30
0.0
  3
____-153
  1

  0
LINE
  5
963
  8
__-1
  6
CONTINUOUS
 62
     7
 10
105.6825349141541
 20
109.7581159245454
 30
0.0
 11
110.6825349141541
 21
109.7581159245454
 31
0.0
  0
LINE
  5
964
  8
__-1
  6
CONTINUOUS
 62
     7
 10
105.6825349141541
 20
119.0914492578787
 30
0.0
 11
110.6825349141541
 21
119.0914492578787
 31
0.0
  0
LINE
  5
965
  8
__-1
  6
CONTINUOUS
 62
     7
 10
110.6825349141541
 20
109.7581159245454
 30
0.0
 11
110.6825349141541
 21
119.0914492578787
 31
0.0
  0
CIRCLE
  5
966
  8
__-1
  6
CONTINUOUS
 62
     7
 10
110.6825349141541
 20
109.7581159245454
 30
0.0
 40
0.2999816894531193
  0
CIRCLE
  5
967
  8
__-1
  6
CONTINUOUS
 62
     7
 10
110.6825349141541
 20
119.0914492578787
 30
0.0
 40
0.2999816894531193
  0
INSERT
  5
968
  8
__-1
 62
     7
  2
____-152
 10
0.0
 20
0.0
 30
0.0
  0
ENDBLK
  5
27B
  8
0
  0
BLOCK
  8
0
  2
____-154
 70
     0
 10
0.0
 20
0.0
 30
0.0
  3
____-154
  1

  0
TEXT
  5
969
  8
__-1
 62
     7
 10
84.66701370121862
 20
124.4620257521804
 30
0.0
 40
2.124016203703703
  1
FIX
  7
______MEDIUM
 11
84.66701370121862
 21
126.5860419558841
 31
0.0
 73
     3
  0
TEXT
  5
96A
  8
__-1
 62
     7
 10
82.36477122436678
 20
115.7651270848987
 30
0.0
 40
2.124016203703703
  1
可動障子
  7
______MEDIUM
 11
82.36477122436678
 21
117.8891432886024
 31
0.0
 73
     3
  0
POINT
  5
96B
  8
__-1
  6
CONTINUOUS
 62
     3
 10
65.80181987601132
 20
124.7581159245454
 30
0.0
  0
ENDBLK
  5
27E
  8
0
  0
BLOCK
  8
0
  2
____-155
 70
     0
 10
0.0
 20
0.0
 30
0.0
  3
____-155
  1

  0
INSERT
  5
96C
  8
__-1
 62
     7
  2
____-127
 10
0.0
 20
0.0
 30
0.0
  0
INSERT
  5
96D
  8
__-1
 62
     7
  2
____-129
 10
0.0
 20
0.0
 30
0.0
  0
INSERT
  5
96E
  8
__-1
 62
     7
  2
____-131
 10
0.0
 20
0.0
 30
0.0
  0
INSERT
  5
96F
  8
__-1
 62
     7
  2
____-133
 10
0.0
 20
0.0
 30
0.0
  0
INSERT
  5
970
  8
__-1
 62
     7
  2
____-135
 10
0.0
 20
0.0
 30
0.0
  0
INSERT
  5
971
  8
__-1
 62
     7
  2
____-137
 10
0.0
 20
0.0
 30
0.0
  0
INSERT
  5
972
  8
__-1
 62
     7
  2
____-139
 10
0.0
 20
0.0
 30
0.0
  0
INSERT
  5
973
  8
__-1
 62
     7
  2
____-141
 10
0.0
 20
0.0
 30
0.0
  0
INSERT
  5
974
  8
__-1
 62
     7
  2
____-143
 10
0.0
 20
0.0
 30
0.0
  0
INSERT
  5
975
  8
__-1
 62
     7
  2
____-145
 10
0.0
 20
0.0
 30
0.0
  0
INSERT
  5
976
  8
__-1
 62
     7
  2
____-147
 10
0.0
 20
0.0
 30
0.0
  0
INSERT
  5
977
  8
__-1
 62
     7
  2
____-149
 10
0.0
 20
0.0
 30
0.0
  0
INSERT
  5
978
  8
__-1
 62
     7
  2
____-151
 10
0.0
 20
0.0
 30
0.0
  0
INSERT
  5
979
  8
__-1
 62
     7
  2
____-153
 10
0.0
 20
0.0
 30
0.0
  0
TEXT
  5
97A
  8
__-1
 62
     7
 10
29.17381707330498
 20
129.3949313030475
 30
0.0
 40
2.124016203703703
  1
PB12.5
  7
______MEDIUM
 11
29.17381707330498
 21
131.5189475067512
 31
0.0
 73
     3
  0
INSERT
  5
97B
  8
__-1
 62
     7
  2
____-154
 10
0.0
 20
0.0
 30
0.0
  0
TEXT
  5
97C
  8
__-1
 62
     7
 10
29.17381707330498
 20
103.5450441582921
 30
0.0
 40
2.124016203703703
  1
PB12.5
  7
______MEDIUM
 11
29.17381707330498
 21
105.6690603619958
 31
0.0
 73
     3
  0
ENDBLK
  5
281
  8
0
  0
BLOCK
  8
0
  2
__-__-4
 70
     0
 10
0.0
 20
0.0
 30
0.0
  3
__-__-4
  1

  0
POLYLINE
  5
97D
  8
__-2
  6
CONTINUOUS
 62
     7
 66
     1
 10
0.0
 20
0.0
 30
0.0
 70
   129
  0
VERTEX
  5
97E
  8
__-2
  6
CONTINUOUS
 62
     7
 10
-23.5679904844496
 20
-0.5715000000000003
 30
0.0
  0
VERTEX
  5
97F
  8
__-2
  6
CONTINUOUS
 62
     7
 10
23.5679904844496
 20
-0.5715000000000003
 30
0.0
  0
VERTEX
  5
980
  8
__-2
  6
CONTINUOUS
 62
     7
 10
23.5679904844496
 20
-6.794499999999999
 30
0.0
  0
VERTEX
  5
981
  8
__-2
  6
CONTINUOUS
 62
     7
 10
-23.5679904844496
 20
-6.794499999999999
 30
0.0
  0
SEQEND
  5
982
  8
__-2
  6
CONTINUOUS
 62
     7
  0
TEXT
  5
983
  8
__-2
 62
     7
 10
-22.36469586588542
 20
-4.286249999999999
 30
0.0
 40
2.389518229166667
  1
部分横断面図　110幅　S=1：3
  7
______MEDIUM
 72
     1
 11
0.0
 21
-1.896731770833333
 31
0.0
 73
     3
  0
ENDBLK
  5
284
  8
0
  0
BLOCK
  8
0
  2
____-156
 70
     0
 10
0.0
 20
0.0
 30
0.0
  3
____-156
  1

  0
LINE
  5
984
  8
__-1
  6
CONTINUOUS
 62
     7
 10
2084.675063679458
 20
762.2523321883898
 30
0.0
 11
2087.675063679458
 21
766.2523321883898
 31
0.0
  0
LINE
  5
985
  8
__-1
  6
CONTINUOUS
 62
     7
 10
2087.675063679458
 20
762.2523321883898
 30
0.0
 11
2084.675063679458
 21
766.2523321883898
 31
0.0
  0
ENDBLK
  5
287
  8
0
  0
BLOCK
  8
0
  2
____-157
 70
     0
 10
0.0
 20
0.0
 30
0.0
  3
____-157
  1

  0
POLYLINE
  5
986
  8
__-2
  6
CONTINUOUS
 62
     7
 66
     1
 10
0.0
 20
0.0
 30
0.0
 70
   129
  0
VERTEX
  5
987
  8
__-2
  6
CONTINUOUS
 62
     7
 10
2084.675063679458
 20
766.2523321883898
 30
0.0
  0
VERTEX
  5
988
  8
__-2
  6
CONTINUOUS
 62
     7
 10
2087.675063679458
 20
766.2523321883898
 30
0.0
  0
VERTEX
  5
989
  8
__-2
  6
CONTINUOUS
 62
     7
 10
2087.675063679458
 20
762.2523321883898
 30
0.0
  0
VERTEX
  5
98A
  8
__-2
  6
CONTINUOUS
 62
     7
 10
2084.675063679458
 20
762.2523321883898
 30
0.0
  0
SEQEND
  5
98B
  8
__-2
  6
CONTINUOUS
 62
     7
  0
INSERT
  5
98C
  8
__-1
 62
     7
  2
____-156
 10
0.0
 20
0.0
 30
0.0
  0
ENDBLK
  5
28A
  8
0
  0
BLOCK
  8
0
  2
____-158
 70
     0
 10
0.0
 20
0.0
 30
0.0
  3
____-158
  1

  0
LINE
  5
98D
  8
__-1
  6
CONTINUOUS
 62
     7
 10
2109.675063679458
 20
733.7523321883898
 30
0.0
 11
2112.675063679458
 21
738.7523321883898
 31
0.0
  0
LINE
  5
98E
  8
__-1
  6
CONTINUOUS
 62
     7
 10
2112.675063679458
 20
733.7523321883898
 30
0.0
 11
2109.675063679458
 21
738.7523321883898
 31
0.0
  0
ENDBLK
  5
28D
  8
0
  0
BLOCK
  8
0
  2
____-159
 70
     0
 10
0.0
 20
0.0
 30
0.0
  3
____-159
  1

  0
POLYLINE
  5
98F
  8
__-2
  6
CONTINUOUS
 62
     7
 66
     1
 10
0.0
 20
0.0
 30
0.0
 70
   129
  0
VERTEX
  5
990
  8
__-2
  6
CONTINUOUS
 62
     7
 10
2109.675063679458
 20
738.7523321883898
 30
0.0
  0
VERTEX
  5
991
  8
__-2
  6
CONTINUOUS
 62
     7
 10
2112.675063679458
 20
738.7523321883898
 30
0.0
  0
VERTEX
  5
992
  8
__-2
  6
CONTINUOUS
 62
     7
 10
2112.675063679458
 20
733.7523321883898
 30
0.0
  0
VERTEX
  5
993
  8
__-2
  6
CONTINUOUS
 62
     7
 10
2109.675063679458
 20
733.7523321883898
 30
0.0
  0
SEQEND
  5
994
  8
__-2
  6
CONTINUOUS
 62
     7
  0
INSERT
  5
995
  8
__-1
 62
     7
  2
____-158
 10
0.0
 20
0.0
 30
0.0
  0
ENDBLK
  5
290
  8
0
  0
BLOCK
  8
0
  2
____-160
 70
     0
 10
0.0
 20
0.0
 30
0.0
  3
____-160
  1

  0
POLYLINE
  5
996
  8
__-2
  6
CONTINUOUS
 62
     7
 66
     1
 10
0.0
 20
0.0
 30
0.0
 70
   129
  0
VERTEX
  5
997
  8
__-2
  6
CONTINUOUS
 62
     7
 10
2221.306971939544
 20
762.2523321883898
 30
0.0
  0
VERTEX
  5
998
  8
__-2
  6
CONTINUOUS
 62
     7
 10
2087.675063679458
 20
762.2523321883898
 30
0.0
  0
VERTEX
  5
999
  8
__-2
  6
CONTINUOUS
 62
     7
 10
2087.675063679458
 20
766.2523321883898
 30
0.0
  0
VERTEX
  5
99A
  8
__-2
  6
CONTINUOUS
 62
     7
 10
2221.306971939544
 20
766.2523321883898
 30
0.0
  0
SEQEND
  5
99B
  8
__-2
  6
CONTINUOUS
 62
     7
  0
ENDBLK
  5
293
  8
0
  0
BLOCK
  8
0
  2
____-161
 70
     0
 10
0.0
 20
0.0
 30
0.0
  3
____-161
  1

  0
POLYLINE
  5
99C
  8
__-2
  6
CONTINUOUS
 62
     7
 66
     1
 10
0.0
 20
0.0
 30
0.0
 70
   129
  0
VERTEX
  5
99D
  8
__-2
  6
CONTINUOUS
 62
     7
 10
2221.306971939544
 20
733.7523321883898
 30
0.0
  0
VERTEX
  5
99E
  8
__-2
  6
CONTINUOUS
 62
     7
 10
2112.675063679458
 20
733.7523321883898
 30
0.0
  0
VERTEX
  5
99F
  8
__-2
  6
CONTINUOUS
 62
     7
 10
2112.675063679458
 20
738.7523321883898
 30
0.0
  0
VERTEX
  5
9A0
  8
__-2
  6
CONTINUOUS
 62
     7
 10
2221.306971939544
 20
738.7523321883898
 30
0.0
  0
SEQEND
  5
9A1
  8
__-2
  6
CONTINUOUS
 62
     7
  0
ENDBLK
  5
296
  8
0
  0
BLOCK
  8
0
  2
___-6_2D
 70
     0
 10
0.0
 20
0.0
 30
0.0
  3
___-6_2D
  1

  0
POLYLINE
  5
9A2
  8
__-1
  6
CONTINUOUS
 62
     7
 66
     1
 10
0.0
 20
0.0
 30
0.0
 70
   128
  0
VERTEX
  5
9A3
  8
__-1
  6
CONTINUOUS
 62
     7
 10
2221.306971939544
 20
826.2523321883898
 30
0.0
  0
VERTEX
  5
9A4
  8
__-1
  6
CONTINUOUS
 62
     7
 10
2069.675063679458
 20
826.2523321883898
 30
0.0
  0
VERTEX
  5
9A5
  8
__-1
  6
CONTINUOUS
 62
     7
 10
2069.675063679458
 20
676.2523321883898
 30
0.0
  0
VERTEX
  5
9A6
  8
__-1
  6
CONTINUOUS
 62
     7
 10
2221.306971939544
 20
676.2523321883898
 30
0.0
  0
SEQEND
  5
9A7
  8
__-1
  6
CONTINUOUS
 62
     7
  0
LINE
  5
9A8
  8
__-1
  6
CONTINUOUS
 62
     7
 10
2221.306971939544
 20
733.7523321883898
 30
0.0
 11
2109.675063679458
 21
733.7523321883898
 31
0.0
  0
LINE
  5
9A9
  8
__-1
  6
CONTINUOUS
 62
     7
 10
2109.675063679458
 20
738.7523321883898
 30
0.0
 11
2221.306971939544
 21
738.7523321883898
 31
0.0
  0
LINE
  5
9AA
  8
__-2
  6
CONTINUOUS
 62
     7
 10
1896.158798424767
 20
803.7523321883898
 30
0.0
 11
2069.675063679458
 21
803.7523321883898
 31
0.0
  0
LINE
  5
9AB
  8
__-2
  6
CONTINUOUS
 62
     7
 10
1896.158798424767
 20
816.2523321883898
 30
0.0
 11
2069.675063679458
 21
816.2523321883898
 31
0.0
  0
LINE
  5
9AC
  8
__-2
  6
ISO-10______
 62
     8
 10
1896.158798424767
 20
751.2523321883898
 30
0.0
 11
2069.675063679458
 21
751.2523321883898
 31
0.0
  0
LINE
  5
9AD
  8
__-2
  6
CONTINUOUS
 62
   251
 10
1896.158798424767
 20
803.7523321883898
 30
0.0
 11
2069.675063679458
 21
803.7523321883898
 31
0.0
  0
LINE
  5
9AE
  8
__-2
  6
CONTINUOUS
 62
   251
 10
1896.158798424767
 20
698.7523321883898
 30
0.0
 11
2069.675063679458
 21
698.7523321883898
 31
0.0
  0
LINE
  5
9AF
  8
__-2
  6
ISO-10______
 62
     8
 10
1896.158798424767
 20
751.2523321883898
 30
0.0
 11
2069.675063679458
 21
751.2523321883898
 31
0.0
  0
LINE
  5
9B0
  8
__-2
  6
CONTINUOUS
 62
     7
 10
1896.158798424767
 20
686.2523321883898
 30
0.0
 11
2069.675063679458
 21
686.2523321883898
 31
0.0
  0
LINE
  5
9B1
  8
__-2
  6
CONTINUOUS
 62
     7
 10
1896.158798424767
 20
698.7523321883898
 30
0.0
 11
2069.675063679458
 21
698.7523321883898
 31
0.0
  0
LINE
  5
9B2
  8
__-2
  6
CONTINUOUS
 62
     7
 10
2069.675063679458
 20
686.2523321883898
 30
0.0
 11
2069.675063679458
 21
816.2523321883898
 31
0.0
  0
LINE
  5
9B3
  8
__-2
  6
CONTINUOUS
 62
     7
 10
1896.158798424767
 20
816.2523321883898
 30
0.0
 11
2069.675063679458
 21
816.2523321883898
 31
0.0
  0
LINE
  5
9B4
  8
__-2
  6
CONTINUOUS
 62
     7
 10
1896.158798424767
 20
686.2523321883898
 30
0.0
 11
2069.675063679458
 21
686.2523321883898
 31
0.0
  0
LINE
  5
9B5
  8
__-2
  6
CONTINUOUS
 62
     7
 10
2069.675063679458
 20
803.7523321883898
 30
0.0
 11
2069.675063679458
 21
826.2523321883898
 31
0.0
  0
LINE
  5
9B6
  8
__-2
  6
_____-5
 62
     7
 10
2094.675063679458
 20
751.7523321883898
 30
0.0
 11
2221.306971939544
 21
751.7523321883898
 31
0.0
  0
LINE
  5
9B7
  8
__-2
  6
_____-5
 62
     7
 10
2094.675063679458
 20
776.7523321883898
 30
0.0
 11
2221.306971939544
 21
776.7523321883898
 31
0.0
  0
LINE
  5
9B8
  8
__-2
  6
CONTINUOUS
 62
     7
 10
2109.675063679458
 20
739.7523321883898
 30
0.0
 11
2109.675063679458
 21
732.7523321883898
 31
0.0
  0
LINE
  5
9B9
  8
__-2
  6
CONTINUOUS
 62
     7
 10
2109.675063679458
 20
732.7523321883898
 30
0.0
 11
2119.675063679458
 21
732.7523321883898
 31
0.0
  0
LINE
  5
9BA
  8
__-2
  6
CONTINUOUS
 62
     7
 10
2109.675063679458
 20
739.7523321883898
 30
0.0
 11
2119.675063679458
 21
739.7523321883898
 31
0.0
  0
POLYLINE
  5
9BB
  8
__-2
  6
CONTINUOUS
 62
     7
 66
     1
 10
0.0
 20
0.0
 30
0.0
 70
   129
  0
VERTEX
  5
9BC
  8
__-2
  6
CONTINUOUS
 62
     7
 10
2094.675063679458
 20
761.2523321883898
 30
0.0
  0
VERTEX
  5
9BD
  8
__-2
  6
CONTINUOUS
 62
     7
 10
2097.675063679458
 20
761.2523321883898
 30
0.0
  0
VERTEX
  5
9BE
  8
__-2
  6
CONTINUOUS
 62
     7
 10
2097.675063679458
 20
751.7523321883898
 30
0.0
  0
VERTEX
  5
9BF
  8
__-2
  6
CONTINUOUS
 62
     7
 10
2094.675063679458
 20
751.7523321883898
 30
0.0
  0
SEQEND
  5
9C0
  8
__-2
  6
CONTINUOUS
 62
     7
  0
POLYLINE
  5
9C1
  8
__-2
  6
CONTINUOUS
 62
     7
 66
     1
 10
0.0
 20
0.0
 30
0.0
 70
   129
  0
VERTEX
  5
9C2
  8
__-2
  6
CONTINUOUS
 62
     7
 10
2094.675063679458
 20
721.2523321883898
 30
0.0
  0
VERTEX
  5
9C3
  8
__-2
  6
CONTINUOUS
 62
     7
 10
2097.675063679458
 20
721.2523321883898
 30
0.0
  0
VERTEX
  5
9C4
  8
__-2
  6
CONTINUOUS
 62
     7
 10
2097.675063679458
 20
711.2523321883903
 30
0.0
  0
VERTEX
  5
9C5
  8
__-2
  6
CONTINUOUS
 62
     7
 10
2094.675063679458
 20
711.2523321883903
 30
0.0
  0
SEQEND
  5
9C6
  8
__-2
  6
CONTINUOUS
 62
     7
  0
POLYLINE
  5
9C7
  8
__-1
  6
CONTINUOUS
 62
     7
 66
     1
 10
0.0
 20
0.0
 30
0.0
 70
   128
  0
VERTEX
  5
9C8
  8
__-1
  6
CONTINUOUS
 62
     7
 10
2221.306971939544
 20
766.2523321883898
 30
0.0
  0
VERTEX
  5
9C9
  8
__-1
  6
CONTINUOUS
 62
     7
 10
2084.675063679458
 20
766.2523321883898
 30
0.0
  0
VERTEX
  5
9CA
  8
__-1
  6
CONTINUOUS
 62
     7
 10
2084.675063679458
 20
762.2523321883898
 30
0.0
  0
VERTEX
  5
9CB
  8
__-1
  6
CONTINUOUS
 62
     7
 10
2221.306971939544
 20
762.2523321883898
 30
0.0
  0
SEQEND
  5
9CC
  8
__-1
  6
CONTINUOUS
 62
     7
  0
POLYLINE
  5
9CD
  8
__-1
  6
CONTINUOUS
 62
     7
 66
     1
 10
0.0
 20
0.0
 30
0.0
 70
   129
  0
VERTEX
  5
9CE
  8
__-1
  6
CONTINUOUS
 62
     7
 10
2119.675063679458
 20
750.2523321883898
 30
0.0
  0
VERTEX
  5
9CF
  8
__-1
  6
CONTINUOUS
 62
     7
 10
2095.675063679458
 20
750.2523321883898
 30
0.0
  0
VERTEX
  5
9D0
  8
__-1
  6
CONTINUOUS
 62
     7
 10
2095.675063679458
 20
722.2523321883898
 30
0.0
  0
VERTEX
  5
9D1
  8
__-1
  6
CONTINUOUS
 62
     7
 10
2119.675063679458
 20
722.2523321883898
 30
0.0
  0
VERTEX
  5
9D2
  8
__-1
  6
CONTINUOUS
 62
     7
 10
2119.675063679458
 20
732.7523321883898
 30
0.0
  0
VERTEX
  5
9D3
  8
__-1
  6
CONTINUOUS
 62
     7
 10
2109.675063679458
 20
732.7523321883898
 30
0.0
  0
VERTEX
  5
9D4
  8
__-1
  6
CONTINUOUS
 62
     7
 10
2109.675063679458
 20
739.7523321883898
 30
0.0
  0
VERTEX
  5
9D5
  8
__-1
  6
CONTINUOUS
 62
     7
 10
2119.675063679458
 20
739.7523321883898
 30
0.0
  0
SEQEND
  5
9D6
  8
__-1
  6
CONTINUOUS
 62
     7
  0
LINE
  5
9D7
  8
__-1
  6
CONTINUOUS
 62
     7
 10
2119.675063679458
 20
750.2523321883898
 30
0.0
 11
2221.306971939544
 21
750.2523321883898
 31
0.0
  0
LINE
  5
9D8
  8
__-1
  6
CONTINUOUS
 62
     7
 10
2221.306971939544
 20
722.2523321883898
 30
0.0
 11
2119.675063679458
 21
722.2523321883898
 31
0.0
  0
POLYLINE
  5
9D9
  8
__-1
  6
CONTINUOUS
 62
     7
 66
     1
 10
0.0
 20
0.0
 30
0.0
 70
   129
  0
VERTEX
  5
9DA
  8
__-1
  6
CONTINUOUS
 62
     7
 10
2094.675063679458
 20
761.2523321883896
 30
0.0
  0
VERTEX
  5
9DB
  8
__-1
  6
CONTINUOUS
 62
     7
 10
2084.675063679458
 20
761.2523321883897
 30
0.0
  0
VERTEX
  5
9DC
  8
__-1
  6
CONTINUOUS
 62
     7
 10
2084.675063679458
 20
767.2523321883898
 30
0.0
  0
VERTEX
  5
9DD
  8
__-1
  6
CONTINUOUS
 62
     7
 10
2094.675063679458
 20
767.2523321883898
 30
0.0
  0
VERTEX
  5
9DE
  8
__-1
  6
CONTINUOUS
 62
     7
 10
2094.675063679458
 20
826.2523321883897
 30
0.0
  0
VERTEX
  5
9DF
  8
__-1
  6
CONTINUOUS
 62
     7
 10
2069.675063679458
 20
826.2523321883898
 30
0.0
  0
VERTEX
  5
9E0
  8
__-1
  6
CONTINUOUS
 62
     7
 10
2069.675063679458
 20
803.7523321883898
 30
0.0
  0
VERTEX
  5
9E1
  8
__-1
  6
CONTINUOUS
 62
     7
 10
2061.675063679458
 20
803.7523321883898
 30
0.0
  0
VERTEX
  5
9E2
  8
__-1
  6
CONTINUOUS
 62
     7
 10
2061.675063679458
 20
698.7523321883897
 30
0.0
  0
VERTEX
  5
9E3
  8
__-1
  6
CONTINUOUS
 62
     7
 10
2069.675063679458
 20
698.7523321883897
 30
0.0
  0
VERTEX
  5
9E4
  8
__-1
  6
CONTINUOUS
 62
     7
 10
2069.675063679458
 20
676.2523321883897
 30
0.0
  0
VERTEX
  5
9E5
  8
__-1
  6
CONTINUOUS
 62
     7
 10
2094.675063679458
 20
676.2523321883898
 30
0.0
  0
SEQEND
  5
9E6
  8
__-1
  6
CONTINUOUS
 62
     7
  0
POLYLINE
  5
9E7
  8
__-1
  6
CONTINUOUS
 62
     7
 66
     1
 10
0.0
 20
0.0
 30
0.0
 70
   129
  0
VERTEX
  5
9E8
  8
__-1
  6
CONTINUOUS
 62
     7
 10
2070.675063679458
 20
749.2523321883893
 30
0.0
  0
VERTEX
  5
9E9
  8
__-1
  6
CONTINUOUS
 62
     7
 10
2094.675063679458
 20
749.2523321883893
 30
0.0
  0
VERTEX
  5
9EA
  8
__-1
  6
CONTINUOUS
 62
     7
 10
2094.675063679458
 20
723.2523321883884
 30
0.0
  0
VERTEX
  5
9EB
  8
__-1
  6
CONTINUOUS
 62
     7
 10
2070.675063679458
 20
723.2523321883884
 30
0.0
  0
SEQEND
  5
9EC
  8
__-1
  6
CONTINUOUS
 62
     7
  0
POLYLINE
  5
9ED
  8
__-2
  6
CONTINUOUS
 62
     7
 66
     1
 10
0.0
 20
0.0
 30
0.0
 70
   129
  0
VERTEX
  5
9EE
  8
__-2
  6
CONTINUOUS
 62
     7
 10
2092.175063679458
 20
749.2523321883893
 30
0.0
  0
VERTEX
  5
9EF
  8
__-2
  6
CONTINUOUS
 62
     7
 10
2094.675063679458
 20
749.2523321883893
 30
0.0
  0
VERTEX
  5
9F0
  8
__-2
  6
CONTINUOUS
 62
     7
 10
2094.675063679458
 20
723.2523321883889
 30
0.0
  0
VERTEX
  5
9F1
  8
__-2
  6
CONTINUOUS
 62
     7
 10
2092.175063679458
 20
723.2523321883889
 30
0.0
  0
SEQEND
  5
9F2
  8
__-2
  6
CONTINUOUS
 62
     7
  0
LINE
  5
9F3
  8
__-2
  6
_____-5
 62
     7
 10
2070.675063679458
 20
749.2523321883893
 30
0.0
 11
2092.175063679458
 21
723.2523321883889
 31
0.0
  0
LINE
  5
9F4
  8
__-2
  6
_____-5
 62
     7
 10
2092.175063679458
 20
749.2523321883893
 30
0.0
 11
2070.675063679458
 21
723.2523321883884
 31
0.0
  0
POLYLINE
  5
9F5
  8
__-1
  6
CONTINUOUS
 62
     7
 66
     1
 10
0.0
 20
0.0
 30
0.0
 70
   129
  0
VERTEX
  5
9F6
  8
__-1
  6
CONTINUOUS
 62
     7
 10
2049.675063679458
 20
803.7523321883898
 30
0.0
  0
VERTEX
  5
9F7
  8
__-1
  6
CONTINUOUS
 62
     7
 10
2061.675063679458
 20
803.7523321883898
 30
0.0
  0
VERTEX
  5
9F8
  8
__-1
  6
CONTINUOUS
 62
     7
 10
2061.675063679458
 20
698.7523321883898
 30
0.0
  0
VERTEX
  5
9F9
  8
__-1
  6
CONTINUOUS
 62
     7
 10
2049.675063679458
 20
698.7523321883898
 30
0.0
  0
SEQEND
  5
9FA
  8
__-1
  6
CONTINUOUS
 62
     7
  0
INSERT
  5
9FB
  8
__-1
 62
     7
  2
____-157
 10
0.0
 20
0.0
 30
0.0
  0
INSERT
  5
9FC
  8
__-1
 62
     7
  2
____-159
 10
0.0
 20
0.0
 30
0.0
  0
POLYLINE
  5
9FD
  8
__-2
  6
CONTINUOUS
 62
     1
 66
     1
 10
0.0
 20
0.0
 30
0.0
 70
   129
  0
VERTEX
  5
9FE
  8
__-2
  6
CONTINUOUS
 62
     1
 10
2092.175063679458
 20
749.2523321883893
 30
0.0
  0
VERTEX
  5
9FF
  8
__-2
  6
CONTINUOUS
 62
     1
 10
2094.675063679458
 20
749.2523321883893
 30
0.0
  0
VERTEX
  5
A00
  8
__-2
  6
CONTINUOUS
 62
     1
 10
2094.675063679458
 20
723.2523321883889
 30
0.0
  0
VERTEX
  5
A01
  8
__-2
  6
CONTINUOUS
 62
     1
 10
2092.175063679458
 20
723.2523321883889
 30
0.0
  0
SEQEND
  5
A02
  8
__-2
  6
CONTINUOUS
 62
     1
  0
INSERT
  5
A03
  8
__-2
 62
     7
  2
____-160
 10
0.0
 20
0.0
 30
0.0
  0
INSERT
  5
A04
  8
__-2
 62
     7
  2
____-161
 10
0.0
 20
0.0
 30
0.0
  0
ENDBLK
  5
299
  8
0
  0
BLOCK
  8
0
  2
____-162
 70
     0
 10
0.0
 20
0.0
 30
0.0
  3
____-162
  1

  0
TEXT
  5
A05
  8
__-1
 62
     7
 10
211.8270274669287
 20
115.4078717839204
 30
0.0
 40
2.124016203703703
  1
150
 50
90.0
  7
______MEDIUM
 11
209.703011263225
 21
115.4078717839204
 31
0.0
 73
     3
  0
ENDBLK
  5
29D
  8
0
  0
BLOCK
  8
0
  2
____-163
 70
     0
 10
0.0
 20
0.0
 30
0.0
  3
____-163
  1

  0
LINE
  5
A06
  8
__-1
  6
CONTINUOUS
 62
     7
 10
204.0485830224843
 20
92.75811592454541
 30
0.0
 11
214.0485830224843
 21
92.75811592454541
 31
0.0
  0
LINE
  5
A07
  8
__-1
  6
CONTINUOUS
 62
     7
 10
204.0485830224843
 20
142.7581159245454
 30
0.0
 11
214.0485830224843
 21
142.7581159245454
 31
0.0
  0
LINE
  5
A08
  8
__-1
  6
CONTINUOUS
 62
     7
 10
214.0485830224843
 20
92.75811592454541
 30
0.0
 11
214.0485830224843
 21
142.7581159245454
 31
0.0
  0
CIRCLE
  5
A09
  8
__-1
  6
CONTINUOUS
 62
     7
 10
214.0485830224843
 20
92.75811592454541
 30
0.0
 40
0.2999816894531193
  0
CIRCLE
  5
A0A
  8
__-1
  6
CONTINUOUS
 62
     7
 10
214.0485830224843
 20
142.7581159245454
 30
0.0
 40
0.2999816894531193
  0
INSERT
  5
A0B
  8
__-1
 62
     7
  2
____-162
 10
0.0
 20
0.0
 30
0.0
  0
ENDBLK
  5
2A0
  8
0
  0
BLOCK
  8
0
  2
____-164
 70
     0
 10
0.0
 20
0.0
 30
0.0
  3
____-164
  1

  0
TEXT
  5
A0C
  8
__-1
 62
     7
 10
158.2430521589863
 20
153.3130048134343
 30
0.0
 40
2.124016203703703
  1
25
  7
______MEDIUM
 11
158.2430521589863
 21
155.437021017138
 31
0.0
 73
     3
  0
ENDBLK
  5
2A3
  8
0
  0
BLOCK
  8
0
  2
____-165
 70
     0
 10
0.0
 20
0.0
 30
0.0
  3
____-165
  1

  0
LINE
  5
A0D
  8
__-1
  6
CONTINUOUS
 62
     7
 10
163.9765482527363
 20
146.0914492578787
 30
0.0
 11
163.9765482527363
 21
151.0914492578787
 31
0.0
  0
LINE
  5
A0E
  8
__-1
  6
CONTINUOUS
 62
     7
 10
155.6432149194029
 20
146.0914492578787
 30
0.0
 11
155.6432149194029
 21
151.0914492578787
 31
0.0
  0
LINE
  5
A0F
  8
__-1
  6
CONTINUOUS
 62
     7
 10
163.9765482527363
 20
151.0914492578787
 30
0.0
 11
155.6432149194029
 21
151.0914492578787
 31
0.0
  0
CIRCLE
  5
A10
  8
__-1
  6
CONTINUOUS
 62
     7
 10
163.9765482527363
 20
151.0914492578787
 30
0.0
 40
0.2999816894531193
  0
CIRCLE
  5
A11
  8
__-1
  6
CONTINUOUS
 62
     7
 10
155.6432149194029
 20
151.0914492578787
 30
0.0
 40
0.2999816894531193
  0
INSERT
  5
A12
  8
__-1
 62
     7
  2
____-164
 10
0.0
 20
0.0
 30
0.0
  0
ENDBLK
  5
2A6
  8
0
  0
BLOCK
  8
0
  2
____-166
 70
     0
 10
0.0
 20
0.0
 30
0.0
  3
____-166
  1

  0
TEXT
  5
A13
  8
__-1
 62
     7
 10
146.7148258960461
 20
139.5246198307954
 30
0.0
 40
2.124016203703703
  1
10
 50
90.0
  7
______MEDIUM
 11
144.5908096923424
 21
139.5246198307954
 31
0.0
 73
     3
  0
TEXT
  5
A14
  8
__-1
 62
     7
 10
152.2303814516017
 20
138.2692270356565
 30
0.0
 40
2.124016203703703
  1
チリ
 50
90.0
  7
______MEDIUM
 11
150.106365247898
 21
138.2692270356565
 31
0.0
 73
     3
  0
ENDBLK
  5
2A9
  8
0
  0
BLOCK
  8
0
  2
____-167
 70
     0
 10
0.0
 20
0.0
 30
0.0
  3
____-167
  1

  0
LINE
  5
A15
  8
__-1
  6
CONTINUOUS
 62
     7
 10
153.9363814516017
 20
142.7581159245454
 30
0.0
 11
148.9363814516017
 21
142.7581159245454
 31
0.0
  0
LINE
  5
A16
  8
__-1
  6
CONTINUOUS
 62
     7
 10
153.9363814516017
 20
139.4247825912121
 30
0.0
 11
148.9363814516017
 21
139.4247825912121
 31
0.0
  0
LINE
  5
A17
  8
__-1
  6
CONTINUOUS
 62
     7
 10
148.9363814516017
 20
142.7581159245454
 30
0.0
 11
148.9363814516017
 21
139.4247825912121
 31
0.0
  0
CIRCLE
  5
A18
  8
__-1
  6
CONTINUOUS
 62
     7
 10
148.9363814516017
 20
142.7581159245454
 30
0.0
 40
0.2999816894531193
  0
CIRCLE
  5
A19
  8
__-1
  6
CONTINUOUS
 62
     7
 10
148.9363814516017
 20
139.4247825912121
 30
0.0
 40
0.2999816894531193
  0
INSERT
  5
A1A
  8
__-1
 62
     7
  2
____-166
 10
0.0
 20
0.0
 30
0.0
  0
ENDBLK
  5
2AC
  8
0
  0
BLOCK
  8
0
  2
____-168
 70
     0
 10
0.0
 20
0.0
 30
0.0
  3
____-168
  1

  0
TEXT
  5
A1B
  8
__-1
 62
     7
 10
146.7148258960461
 20
92.85795316412874
 30
0.0
 40
2.124016203703703
  1
10
 50
90.0
  7
______MEDIUM
 11
144.5908096923424
 21
92.85795316412874
 31
0.0
 73
     3
  0
TEXT
  5
A1C
  8
__-1
 62
     7
 10
152.2303814516017
 20
91.60256036898986
 30
0.0
 40
2.124016203703703
  1
チリ
 50
90.0
  7
______MEDIUM
 11
150.106365247898
 21
91.60256036898986
 31
0.0
 73
     3
  0
ENDBLK
  5
2AF
  8
0
  0
BLOCK
  8
0
  2
____-169
 70
     0
 10
0.0
 20
0.0
 30
0.0
  3
____-169
  1

  0
LINE
  5
A1D
  8
__-1
  6
CONTINUOUS
 62
     7
 10
153.9363814516017
 20
96.09144925787874
 30
0.0
 11
148.9363814516017
 21
96.09144925787874
 31
0.0
  0
LINE
  5
A1E
  8
__-1
  6
CONTINUOUS
 62
     7
 10
153.9363814516017
 20
92.75811592454541
 30
0.0
 11
148.9363814516017
 21
92.75811592454541
 31
0.0
  0
LINE
  5
A1F
  8
__-1
  6
CONTINUOUS
 62
     7
 10
148.9363814516017
 20
96.09144925787874
 30
0.0
 11
148.9363814516017
 21
92.75811592454541
 31
0.0
  0
CIRCLE
  5
A20
  8
__-1
  6
CONTINUOUS
 62
     7
 10
148.9363814516017
 20
96.09144925787874
 30
0.0
 40
0.2999816894531193
  0
CIRCLE
  5
A21
  8
__-1
  6
CONTINUOUS
 62
     7
 10
148.9363814516017
 20
92.75811592454541
 30
0.0
 40
0.2999816894531193
  0
INSERT
  5
A22
  8
__-1
 62
     7
  2
____-168
 10
0.0
 20
0.0
 30
0.0
  0
ENDBLK
  5
2B2
  8
0
  0
BLOCK
  8
0
  2
____-170
 70
     0
 10
0.0
 20
0.0
 30
0.0
  3
____-170
  1

  0
TEXT
  5
A23
  8
__-1
 62
     7
 10
149.4097188256529
 20
114.8973368505575
 30
0.0
 40
2.124016203703703
  1
12
  7
______MEDIUM
 11
149.4097188256529
 21
117.0213530542612
 31
0.0
 73
     3
  0
ENDBLK
  5
2B5
  8
0
  0
BLOCK
  8
0
  2
____-171
 70
     0
 10
0.0
 20
0.0
 30
0.0
  3
____-171
  1

  0
LINE
  5
A24
  8
__-1
  6
CONTINUOUS
 62
     7
 10
148.9765482527363
 20
112.6757812950019
 30
0.0
 11
152.9765482527363
 21
112.6757812950019
 31
0.0
  0
CIRCLE
  5
A25
  8
__-1
  6
CONTINUOUS
 62
     7
 10
148.9765482527363
 20
112.6757812950019
 30
0.0
 40
0.2999816894531193
  0
CIRCLE
  5
A26
  8
__-1
  6
CONTINUOUS
 62
     7
 10
152.9765482527363
 20
112.6757812950019
 30
0.0
 40
0.2999816894531193
  0
INSERT
  5
A27
  8
__-1
 62
     7
  2
____-170
 10
0.0
 20
0.0
 30
0.0
  0
ENDBLK
  5
2B8
  8
0
  0
BLOCK
  8
0
  2
____-172
 70
     0
 10
0.0
 20
0.0
 30
0.0
  3
____-172
  1

  0
TEXT
  5
A28
  8
__-1
 62
     7
 10
153.6931335391946
 20
114.8973368505575
 30
0.0
 40
2.124016203703703
  1
9
  7
______MEDIUM
 11
153.6931335391946
 21
117.0213530542612
 31
0.0
 73
     3
  0
ENDBLK
  5
2BB
  8
0
  0
BLOCK
  8
0
  2
____-173
 70
     0
 10
0.0
 20
0.0
 30
0.0
  3
____-173
  1

  0
LINE
  5
A29
  8
__-1
  6
CONTINUOUS
 62
     7
 10
155.9765482527363
 20
112.675781295002
 30
0.0
 11
152.9765482527363
 21
112.675781295002
 31
0.0
  0
CIRCLE
  5
A2A
  8
__-1
  6
CONTINUOUS
 62
     7
 10
155.9765482527363
 20
112.675781295002
 30
0.0
 40
0.2999816894531193
  0
CIRCLE
  5
A2B
  8
__-1
  6
CONTINUOUS
 62
     7
 10
152.9765482527363
 20
112.675781295002
 30
0.0
 40
0.2999816894531193
  0
INSERT
  5
A2C
  8
__-1
 62
     7
  2
____-172
 10
0.0
 20
0.0
 30
0.0
  0
ENDBLK
  5
2BE
  8
0
  0
BLOCK
  8
0
  2
____-174
 70
     0
 10
0.0
 20
0.0
 30
0.0
  3
____-174
  1

  0
TEXT
  5
A2D
  8
__-1
 62
     7
 10
160.0575545327017
 20
113.2374504205625
 30
0.0
 40
2.124016203703703
  1
24
  7
______MEDIUM
 11
160.0575545327017
 21
115.3614666242662
 31
0.0
 73
     3
  0
ENDBLK
  5
2C1
  8
0
  0
BLOCK
  8
0
  2
____-175
 70
     0
 10
0.0
 20
0.0
 30
0.0
  3
____-175
  1

  0
LINE
  5
A2E
  8
__-1
  6
CONTINUOUS
 62
     7
 10
163.9765482527363
 20
112.6757812950019
 30
0.0
 11
155.9765482527363
 21
112.6757812950019
 31
0.0
  0
CIRCLE
  5
A2F
  8
__-1
  6
CONTINUOUS
 62
     7
 10
163.9765482527363
 20
112.6757812950019
 30
0.0
 40
0.2999816894531193
  0
CIRCLE
  5
A30
  8
__-1
  6
CONTINUOUS
 62
     7
 10
155.9765482527363
 20
112.6757812950019
 30
0.0
 40
0.2999816894531193
  0
INSERT
  5
A31
  8
__-1
 62
     7
  2
____-174
 10
0.0
 20
0.0
 30
0.0
  0
ENDBLK
  5
2C4
  8
0
  0
BLOCK
  8
0
  2
____-176
 70
     0
 10
0.0
 20
0.0
 30
0.0
  3
____-176
  1

  0
TEXT
  5
A32
  8
__-1
 62
     7
 10
159.0587800701692
 20
109.0780858398526
 30
0.0
 40
2.124016203703703
  1
26
 50
90.0
  7
______MEDIUM
 11
156.9347638664655
 21
109.0780858398526
 31
0.0
 73
     3
  0
ENDBLK
  5
2C7
  8
0
  0
BLOCK
  8
0
  2
____-177
 70
     0
 10
0.0
 20
0.0
 30
0.0
  3
____-177
  1

  0
LINE
  5
A33
  8
__-1
  6
CONTINUOUS
 62
     7
 10
159.7903012331599
 20
117.0914492578786
 30
0.0
 11
159.7903012331599
 21
108.4247825912116
 31
0.0
  0
CIRCLE
  5
A34
  8
__-1
  6
CONTINUOUS
 62
     7
 10
159.7903012331599
 20
117.0914492578786
 30
0.0
 40
0.2999816894531193
  0
CIRCLE
  5
A35
  8
__-1
  6
CONTINUOUS
 62
     7
 10
159.7903012331599
 20
108.4247825912116
 30
0.0
 40
0.2999816894531193
  0
INSERT
  5
A36
  8
__-1
 62
     7
  2
____-176
 10
0.0
 20
0.0
 30
0.0
  0
ENDBLK
  5
2CA
  8
0
  0
BLOCK
  8
0
  2
____-178
 70
     0
 10
0.0
 20
0.0
 30
0.0
  3
____-178
  1

  0
TEXT
  5
A37
  8
__-1
 62
     7
 10
159.0687456776043
 20
101.6260249957257
 30
0.0
 40
2.124016203703703
  1
24.5
 50
90.0
  7
______MEDIUM
 11
156.9447294739006
 21
101.6260249957257
 31
0.0
 73
     3
  0
ENDBLK
  5
2CD
  8
0
  0
BLOCK
  8
0
  2
____-179
 70
     0
 10
0.0
 20
0.0
 30
0.0
  3
____-179
  1

  0
LINE
  5
A38
  8
__-1
  6
CONTINUOUS
 62
     7
 10
157.7851160479747
 20
100.2581159245454
 30
0.0
 11
159.7903012331599
 21
100.2581159245454
 31
0.0
  0
LINE
  5
A39
  8
__-1
  6
CONTINUOUS
 62
     7
 10
161.7954864183451
 20
108.4247825912116
 30
0.0
 11
159.7903012331599
 21
108.4247825912116
 31
0.0
  0
LINE
  5
A3A
  8
__-1
  6
CONTINUOUS
 62
     7
 10
159.7903012331599
 20
100.2581159245454
 30
0.0
 11
159.7903012331599
 21
108.4247825912116
 31
0.0
  0
CIRCLE
  5
A3B
  8
__-1
  6
CONTINUOUS
 62
     7
 10
159.7903012331599
 20
100.2581159245454
 30
0.0
 40
0.2999816894531193
  0
CIRCLE
  5
A3C
  8
__-1
  6
CONTINUOUS
 62
     7
 10
159.7903012331599
 20
108.4247825912116
 30
0.0
 40
0.2999816894531193
  0
INSERT
  5
A3D
  8
__-1
 62
     7
  2
____-178
 10
0.0
 20
0.0
 30
0.0
  0
ENDBLK
  5
2D0
  8
0
  0
BLOCK
  8
0
  2
____-180
 70
     0
 10
0.0
 20
0.0
 30
0.0
  3
____-180
  1

  0
TEXT
  5
A3E
  8
__-1
 62
     7
 10
150.7430521589862
 20
153.3130048134344
 30
0.0
 40
2.124016203703703
  1
20
  7
______MEDIUM
 11
150.7430521589862
 21
155.4370210171381
 31
0.0
 73
     3
  0
ENDBLK
  5
2D3
  8
0
  0
BLOCK
  8
0
  2
____-181
 70
     0
 10
0.0
 20
0.0
 30
0.0
  3
____-181
  1

  0
LINE
  5
A3F
  8
__-1
  6
CONTINUOUS
 62
     7
 10
148.9765482527363
 20
146.0914492578788
 30
0.0
 11
148.9765482527363
 21
151.0914492578788
 31
0.0
  0
LINE
  5
A40
  8
__-1
  6
CONTINUOUS
 62
     7
 10
155.6432149194029
 20
146.0914492578788
 30
0.0
 11
155.6432149194029
 21
151.0914492578788
 31
0.0
  0
LINE
  5
A41
  8
__-1
  6
CONTINUOUS
 62
     7
 10
148.9765482527363
 20
151.0914492578788
 30
0.0
 11
155.6432149194029
 21
151.0914492578788
 31
0.0
  0
CIRCLE
  5
A42
  8
__-1
  6
CONTINUOUS
 62
     7
 10
148.9765482527363
 20
151.0914492578788
 30
0.0
 40
0.2999816894531193
  0
CIRCLE
  5
A43
  8
__-1
  6
CONTINUOUS
 62
     7
 10
155.6432149194029
 20
151.0914492578788
 30
0.0
 40
0.2999816894531193
  0
INSERT
  5
A44
  8
__-1
 62
     7
  2
____-180
 10
0.0
 20
0.0
 30
0.0
  0
ENDBLK
  5
2D6
  8
0
  0
BLOCK
  8
0
  2
____-182
 70
     0
 10
0.0
 20
0.0
 30
0.0
  3
____-182
  1

  0
TEXT
  5
A45
  8
__-1
 62
     7
 10
158.2430521589863
 20
86.64633814676762
 30
0.0
 40
2.124016203703703
  1
25
  7
______MEDIUM
 11
158.2430521589863
 21
88.77035435047132
 31
0.0
 73
     3
  0
ENDBLK
  5
2D9
  8
0
  0
BLOCK
  8
0
  2
____-183
 70
     0
 10
0.0
 20
0.0
 30
0.0
  3
____-183
  1

  0
LINE
  5
A46
  8
__-1
  6
CONTINUOUS
 62
     7
 10
163.9765482527363
 20
89.42478259121208
 30
0.0
 11
163.9765482527363
 21
84.42478259121208
 31
0.0
  0
LINE
  5
A47
  8
__-1
  6
CONTINUOUS
 62
     7
 10
155.6432149194029
 20
89.42478259121208
 30
0.0
 11
155.6432149194029
 21
84.42478259121208
 31
0.0
  0
LINE
  5
A48
  8
__-1
  6
CONTINUOUS
 62
     7
 10
163.9765482527363
 20
84.42478259121208
 30
0.0
 11
155.6432149194029
 21
84.42478259121208
 31
0.0
  0
CIRCLE
  5
A49
  8
__-1
  6
CONTINUOUS
 62
     7
 10
163.9765482527363
 20
84.42478259121208
 30
0.0
 40
0.2999816894531193
  0
CIRCLE
  5
A4A
  8
__-1
  6
CONTINUOUS
 62
     7
 10
155.6432149194029
 20
84.42478259121208
 30
0.0
 40
0.2999816894531193
  0
INSERT
  5
A4B
  8
__-1
 62
     7
  2
____-182
 10
0.0
 20
0.0
 30
0.0
  0
ENDBLK
  5
2DC
  8
0
  0
BLOCK
  8
0
  2
____-184
 70
     0
 10
0.0
 20
0.0
 30
0.0
  3
____-184
  1

  0
TEXT
  5
A4C
  8
__-1
 62
     7
 10
150.7430521589862
 20
86.64633814676762
 30
0.0
 40
2.124016203703703
  1
20
  7
______MEDIUM
 11
150.7430521589862
 21
88.77035435047132
 31
0.0
 73
     3
  0
ENDBLK
  5
2DF
  8
0
  0
BLOCK
  8
0
  2
____-185
 70
     0
 10
0.0
 20
0.0
 30
0.0
  3
____-185
  1

  0
LINE
  5
A4D
  8
__-1
  6
CONTINUOUS
 62
     7
 10
148.9765482527363
 20
89.42478259121208
 30
0.0
 11
148.9765482527363
 21
84.42478259121206
 31
0.0
  0
LINE
  5
A4E
  8
__-1
  6
CONTINUOUS
 62
     7
 10
155.6432149194029
 20
89.42478259121208
 30
0.0
 11
155.6432149194029
 21
84.42478259121206
 31
0.0
  0
LINE
  5
A4F
  8
__-1
  6
CONTINUOUS
 62
     7
 10
148.9765482527363
 20
84.42478259121206
 30
0.0
 11
155.6432149194029
 21
84.42478259121206
 31
0.0
  0
CIRCLE
  5
A50
  8
__-1
  6
CONTINUOUS
 62
     7
 10
148.9765482527363
 20
84.42478259121206
 30
0.0
 40
0.2999816894531193
  0
CIRCLE
  5
A51
  8
__-1
  6
CONTINUOUS
 62
     7
 10
155.6432149194029
 20
84.42478259121206
 30
0.0
 40
0.2999816894531193
  0
INSERT
  5
A52
  8
__-1
 62
     7
  2
____-184
 10
0.0
 20
0.0
 30
0.0
  0
ENDBLK
  5
2E2
  8
0
  0
BLOCK
  8
0
  2
____-186
 70
     0
 10
0.0
 20
0.0
 30
0.0
  3
____-186
  1

  0
TEXT
  5
A53
  8
__-1
 62
     7
 10
206.6357077353238
 20
117.7023976085732
 30
0.0
 40
2.124016203703703
  1
25
 50
90.0
  7
______MEDIUM
 11
204.5116915316201
 21
117.7023976085732
 31
0.0
 73
     3
  0
TEXT
  5
A54
  8
__-1
 62
     7
 10
206.6357077353238
 20
120.8360564627399
 30
0.0
 40
2.124016203703703
  1
程度
 50
90.0
  7
______MEDIUM
 11
204.5116915316201
 21
120.8360564627399
 31
0.0
 73
     3
  0
ENDBLK
  5
2E5
  8
0
  0
BLOCK
  8
0
  2
____-187
 70
     0
 10
0.0
 20
0.0
 30
0.0
  3
____-187
  1

  0
LINE
  5
A55
  8
__-1
  6
CONTINUOUS
 62
     7
 10
203.8572632908793
 20
126.2581159245454
 30
0.0
 11
208.8572632908793
 21
126.2581159245454
 31
0.0
  0
LINE
  5
A56
  8
__-1
  6
CONTINUOUS
 62
     7
 10
203.8572632908793
 20
117.9247825912121
 30
0.0
 11
208.8572632908793
 21
117.9247825912121
 31
0.0
  0
LINE
  5
A57
  8
__-1
  6
CONTINUOUS
 62
     7
 10
208.8572632908793
 20
126.2581159245454
 30
0.0
 11
208.8572632908793
 21
117.9247825912121
 31
0.0
  0
CIRCLE
  5
A58
  8
__-1
  6
CONTINUOUS
 62
     7
 10
208.8572632908793
 20
126.2581159245454
 30
0.0
 40
0.2999816894531193
  0
CIRCLE
  5
A59
  8
__-1
  6
CONTINUOUS
 62
     7
 10
208.8572632908793
 20
117.9247825912121
 30
0.0
 40
0.2999816894531193
  0
INSERT
  5
A5A
  8
__-1
 62
     7
  2
____-186
 10
0.0
 20
0.0
 30
0.0
  0
ENDBLK
  5
2E8
  8
0
  0
BLOCK
  8
0
  2
____-188
 70
     0
 10
0.0
 20
0.0
 30
0.0
  3
____-188
  1

  0
TEXT
  5
A5B
  8
__-1
 62
     7
 10
206.6357077353238
 20
108.3690642752399
 30
0.0
 40
2.124016203703703
  1
28
 50
90.0
  7
______MEDIUM
 11
204.5116915316201
 21
108.3690642752399
 31
0.0
 73
     3
  0
TEXT
  5
A5C
  8
__-1
 62
     7
 10
206.6357077353238
 20
111.5027231294065
 30
0.0
 40
2.124016203703703
  1
程度
 50
90.0
  7
______MEDIUM
 11
204.5116915316201
 21
111.5027231294065
 31
0.0
 73
     3
  0
ENDBLK
  5
2EB
  8
0
  0
BLOCK
  8
0
  2
____-189
 70
     0
 10
0.0
 20
0.0
 30
0.0
  3
____-189
  1

  0
LINE
  5
A5D
  8
__-1
  6
CONTINUOUS
 62
     7
 10
203.8572632908793
 20
108.0914492578787
 30
0.0
 11
208.8572632908793
 21
108.0914492578787
 31
0.0
  0
LINE
  5
A5E
  8
__-1
  6
CONTINUOUS
 62
     7
 10
203.8572632908793
 20
117.4247825912121
 30
0.0
 11
208.8572632908793
 21
117.4247825912121
 31
0.0
  0
LINE
  5
A5F
  8
__-1
  6
CONTINUOUS
 62
     7
 10
208.8572632908793
 20
108.0914492578787
 30
0.0
 11
208.8572632908793
 21
117.4247825912121
 31
0.0
  0
CIRCLE
  5
A60
  8
__-1
  6
CONTINUOUS
 62
     7
 10
208.8572632908793
 20
108.0914492578787
 30
0.0
 40
0.2999816894531193
  0
CIRCLE
  5
A61
  8
__-1
  6
CONTINUOUS
 62
     7
 10
208.8572632908793
 20
117.4247825912121
 30
0.0
 40
0.2999816894531193
  0
INSERT
  5
A62
  8
__-1
 62
     7
  2
____-188
 10
0.0
 20
0.0
 30
0.0
  0
ENDBLK
  5
2EE
  8
0
  0
BLOCK
  8
0
  2
____-190
 70
     0
 10
0.0
 20
0.0
 30
0.0
  3
____-190
  1

  0
TEXT
  5
A63
  8
__-1
 62
     7
 10
182.8417420779438
 20
122.7953590855137
 30
0.0
 40
2.124016203703703
  1
FIX
  7
______MEDIUM
 11
182.8417420779438
 21
124.9193752892174
 31
0.0
 73
     3
  0
TEXT
  5
A64
  8
__-1
 62
     7
 10
180.5394996010919
 20
114.0984604182321
 30
0.0
 40
2.124016203703703
  1
可動障子
  7
______MEDIUM
 11
180.5394996010919
 21
116.2224766219358
 31
0.0
 73
     3
  0
POINT
  5
A65
  8
__-1
  6
CONTINUOUS
 62
     3
 10
163.9765482527363
 20
123.0914492578787
 30
0.0
  0
ENDBLK
  5
2F1
  8
0
  0
BLOCK
  8
0
  2
____-191
 70
     0
 10
0.0
 20
0.0
 30
0.0
  3
____-191
  1

  0
INSERT
  5
A66
  8
__-1
 62
     7
  2
____-163
 10
0.0
 20
0.0
 30
0.0
  0
INSERT
  5
A67
  8
__-1
 62
     7
  2
____-165
 10
0.0
 20
0.0
 30
0.0
  0
INSERT
  5
A68
  8
__-1
 62
     7
  2
____-167
 10
0.0
 20
0.0
 30
0.0
  0
INSERT
  5
A69
  8
__-1
 62
     7
  2
____-169
 10
0.0
 20
0.0
 30
0.0
  0
INSERT
  5
A6A
  8
__-1
 62
     7
  2
____-171
 10
0.0
 20
0.0
 30
0.0
  0
INSERT
  5
A6B
  8
__-1
 62
     7
  2
____-173
 10
0.0
 20
0.0
 30
0.0
  0
INSERT
  5
A6C
  8
__-1
 62
     7
  2
____-175
 10
0.0
 20
0.0
 30
0.0
  0
INSERT
  5
A6D
  8
__-1
 62
     7
  2
____-177
 10
0.0
 20
0.0
 30
0.0
  0
INSERT
  5
A6E
  8
__-1
 62
     7
  2
____-179
 10
0.0
 20
0.0
 30
0.0
  0
INSERT
  5
A6F
  8
__-1
 62
     7
  2
____-181
 10
0.0
 20
0.0
 30
0.0
  0
INSERT
  5
A70
  8
__-1
 62
     7
  2
____-183
 10
0.0
 20
0.0
 30
0.0
  0
INSERT
  5
A71
  8
__-1
 62
     7
  2
____-185
 10
0.0
 20
0.0
 30
0.0
  0
INSERT
  5
A72
  8
__-1
 62
     7
  2
____-187
 10
0.0
 20
0.0
 30
0.0
  0
INSERT
  5
A73
  8
__-1
 62
     7
  2
____-189
 10
0.0
 20
0.0
 30
0.0
  0
TEXT
  5
A74
  8
__-1
 62
     7
 10
127.34854545003
 20
136.0615979697142
 30
0.0
 40
2.124016203703703
  1
PB12.5
  7
______MEDIUM
 11
127.34854545003
 21
138.1856141734179
 31
0.0
 73
     3
  0
TEXT
  5
A75
  8
__-1
 62
     7
 10
127.34854545003
 20
97.0103375830803
 30
0.0
 40
2.124016203703703
  1
PB12.5
  7
______MEDIUM
 11
127.34854545003
 21
99.134353786784
 31
0.0
 73
     3
  0
INSERT
  5
A76
  8
__-1
 62
     7
  2
____-190
 10
0.0
 20
0.0
 30
0.0
  0
ENDBLK
  5
2F4
  8
0
  0
BLOCK
  8
0
  2
____-192
 70
     0
 10
0.0
 20
0.0
 30
0.0
  3
____-192
  1

  0
LINE
  5
A77
  8
__-1
  6
CONTINUOUS
 62
     7
 10
2484.675063679459
 20
754.7523321883898
 30
0.0
 11
2487.675063679459
 21
758.7523321883898
 31
0.0
  0
LINE
  5
A78
  8
__-1
  6
CONTINUOUS
 62
     7
 10
2487.675063679459
 20
754.7523321883898
 30
0.0
 11
2484.675063679459
 21
758.7523321883898
 31
0.0
  0
ENDBLK
  5
2F7
  8
0
  0
BLOCK
  8
0
  2
____-193
 70
     0
 10
0.0
 20
0.0
 30
0.0
  3
____-193
  1

  0
POLYLINE
  5
A79
  8
__-2
  6
CONTINUOUS
 62
     7
 66
     1
 10
0.0
 20
0.0
 30
0.0
 70
   129
  0
VERTEX
  5
A7A
  8
__-2
  6
CONTINUOUS
 62
     7
 10
2484.675063679459
 20
758.7523321883898
 30
0.0
  0
VERTEX
  5
A7B
  8
__-2
  6
CONTINUOUS
 62
     7
 10
2487.675063679459
 20
758.7523321883898
 30
0.0
  0
VERTEX
  5
A7C
  8
__-2
  6
CONTINUOUS
 62
     7
 10
2487.675063679459
 20
754.7523321883898
 30
0.0
  0
VERTEX
  5
A7D
  8
__-2
  6
CONTINUOUS
 62
     7
 10
2484.675063679459
 20
754.7523321883898
 30
0.0
  0
SEQEND
  5
A7E
  8
__-2
  6
CONTINUOUS
 62
     7
  0
INSERT
  5
A7F
  8
__-1
 62
     7
  2
____-192
 10
0.0
 20
0.0
 30
0.0
  0
ENDBLK
  5
2FA
  8
0
  0
BLOCK
  8
0
  2
____-194
 70
     0
 10
0.0
 20
0.0
 30
0.0
  3
____-194
  1

  0
LINE
  5
A80
  8
__-1
  6
CONTINUOUS
 62
     7
 10
2509.675063679458
 20
726.2523321883912
 30
0.0
 11
2512.675063679458
 21
731.2523321883912
 31
0.0
  0
LINE
  5
A81
  8
__-1
  6
CONTINUOUS
 62
     7
 10
2512.675063679458
 20
726.2523321883912
 30
0.0
 11
2509.675063679458
 21
731.2523321883912
 31
0.0
  0
ENDBLK
  5
2FD
  8
0
  0
BLOCK
  8
0
  2
____-195
 70
     0
 10
0.0
 20
0.0
 30
0.0
  3
____-195
  1

  0
POLYLINE
  5
A82
  8
__-2
  6
CONTINUOUS
 62
     7
 66
     1
 10
0.0
 20
0.0
 30
0.0
 70
   129
  0
VERTEX
  5
A83
  8
__-2
  6
CONTINUOUS
 62
     7
 10
2509.675063679458
 20
731.2523321883912
 30
0.0
  0
VERTEX
  5
A84
  8
__-2
  6
CONTINUOUS
 62
     7
 10
2512.675063679458
 20
731.2523321883912
 30
0.0
  0
VERTEX
  5
A85
  8
__-2
  6
CONTINUOUS
 62
     7
 10
2512.675063679458
 20
726.2523321883912
 30
0.0
  0
VERTEX
  5
A86
  8
__-2
  6
CONTINUOUS
 62
     7
 10
2509.675063679458
 20
726.2523321883912
 30
0.0
  0
SEQEND
  5
A87
  8
__-2
  6
CONTINUOUS
 62
     7
  0
INSERT
  5
A88
  8
__-1
 62
     7
  2
____-194
 10
0.0
 20
0.0
 30
0.0
  0
ENDBLK
  5
300
  8
0
  0
BLOCK
  8
0
  2
____-196
 70
     0
 10
0.0
 20
0.0
 30
0.0
  3
____-196
  1

  0
POLYLINE
  5
A89
  8
__-2
  6
CONTINUOUS
 62
     7
 66
     1
 10
0.0
 20
0.0
 30
0.0
 70
   129
  0
VERTEX
  5
A8A
  8
__-2
  6
CONTINUOUS
 62
     7
 10
2621.306971939544
 20
754.7523321883898
 30
0.0
  0
VERTEX
  5
A8B
  8
__-2
  6
CONTINUOUS
 62
     7
 10
2487.675063679458
 20
754.7523321883898
 30
0.0
  0
VERTEX
  5
A8C
  8
__-2
  6
CONTINUOUS
 62
     7
 10
2487.675063679458
 20
758.7523321883898
 30
0.0
  0
VERTEX
  5
A8D
  8
__-2
  6
CONTINUOUS
 62
     7
 10
2621.306971939544
 20
758.7523321883898
 30
0.0
  0
SEQEND
  5
A8E
  8
__-2
  6
CONTINUOUS
 62
     7
  0
ENDBLK
  5
303
  8
0
  0
BLOCK
  8
0
  2
____-197
 70
     0
 10
0.0
 20
0.0
 30
0.0
  3
____-197
  1

  0
POLYLINE
  5
A8F
  8
__-2
  6
CONTINUOUS
 62
     7
 66
     1
 10
0.0
 20
0.0
 30
0.0
 70
   129
  0
VERTEX
  5
A90
  8
__-2
  6
CONTINUOUS
 62
     7
 10
2621.306971939544
 20
726.2523321883912
 30
0.0
  0
VERTEX
  5
A91
  8
__-2
  6
CONTINUOUS
 62
     7
 10
2512.675063679458
 20
726.2523321883912
 30
0.0
  0
VERTEX
  5
A92
  8
__-2
  6
CONTINUOUS
 62
     7
 10
2512.675063679458
 20
731.2523321883912
 30
0.0
  0
VERTEX
  5
A93
  8
__-2
  6
CONTINUOUS
 62
     7
 10
2621.306971939544
 20
731.2523321883912
 30
0.0
  0
SEQEND
  5
A94
  8
__-2
  6
CONTINUOUS
 62
     7
  0
ENDBLK
  5
306
  8
0
  0
BLOCK
  8
0
  2
___-7_2D
 70
     0
 10
0.0
 20
0.0
 30
0.0
  3
___-7_2D
  1

  0
POLYLINE
  5
A95
  8
__-1
  6
CONTINUOUS
 62
     7
 66
     1
 10
0.0
 20
0.0
 30
0.0
 70
   128
  0
VERTEX
  5
A96
  8
__-1
  6
CONTINUOUS
 62
     7
 10
2621.306971939544
 20
826.2523321883898
 30
0.0
  0
VERTEX
  5
A97
  8
__-1
  6
CONTINUOUS
 62
     7
 10
2469.675063679459
 20
826.2523321883898
 30
0.0
  0
VERTEX
  5
A98
  8
__-1
  6
CONTINUOUS
 62
     7
 10
2469.675063679459
 20
661.2523321883898
 30
0.0
  0
VERTEX
  5
A99
  8
__-1
  6
CONTINUOUS
 62
     7
 10
2621.306971939544
 20
661.2523321883898
 30
0.0
  0
SEQEND
  5
A9A
  8
__-1
  6
CONTINUOUS
 62
     7
  0
LINE
  5
A9B
  8
__-2
  6
CONTINUOUS
 62
     7
 10
2296.158798424768
 20
803.7523321883898
 30
0.0
 11
2469.675063679459
 21
803.7523321883898
 31
0.0
  0
LINE
  5
A9C
  8
__-2
  6
CONTINUOUS
 62
     7
 10
2296.158798424768
 20
816.2523321883898
 30
0.0
 11
2469.675063679459
 21
816.2523321883898
 31
0.0
  0
LINE
  5
A9D
  8
__-2
  6
ISO-10______
 62
     8
 10
2296.158798424768
 20
743.7523321883898
 30
0.0
 11
2469.675063679459
 21
743.7523321883898
 31
0.0
  0
LINE
  5
A9E
  8
__-2
  6
CONTINUOUS
 62
   251
 10
2296.158798424768
 20
803.7523321883898
 30
0.0
 11
2469.675063679459
 21
803.7523321883898
 31
0.0
  0
LINE
  5
A9F
  8
__-2
  6
CONTINUOUS
 62
   251
 10
2296.158798424768
 20
683.7523321883898
 30
0.0
 11
2469.675063679459
 21
683.7523321883898
 31
0.0
  0
LINE
  5
AA0
  8
__-2
  6
ISO-10______
 62
     8
 10
2296.158798424768
 20
743.7523321883898
 30
0.0
 11
2469.675063679459
 21
743.7523321883898
 31
0.0
  0
LINE
  5
AA1
  8
__-2
  6
CONTINUOUS
 62
     7
 10
2296.158798424768
 20
671.2523321883898
 30
0.0
 11
2469.675063679459
 21
671.2523321883898
 31
0.0
  0
LINE
  5
AA2
  8
__-2
  6
CONTINUOUS
 62
     7
 10
2296.158798424768
 20
683.7523321883898
 30
0.0
 11
2469.675063679459
 21
683.7523321883898
 31
0.0
  0
LINE
  5
AA3
  8
__-2
  6
CONTINUOUS
 62
     7
 10
2469.675063679459
 20
671.2523321883898
 30
0.0
 11
2469.675063679459
 21
816.2523321883898
 31
0.0
  0
LINE
  5
AA4
  8
__-2
  6
CONTINUOUS
 62
     7
 10
2296.158798424768
 20
816.2523321883898
 30
0.0
 11
2469.675063679459
 21
816.2523321883898
 31
0.0
  0
LINE
  5
AA5
  8
__-2
  6
CONTINUOUS
 62
     7
 10
2296.158798424768
 20
671.2523321883898
 30
0.0
 11
2469.675063679459
 21
671.2523321883898
 31
0.0
  0
LINE
  5
AA6
  8
__-2
  6
CONTINUOUS
 62
     7
 10
2469.675063679459
 20
803.7523321883898
 30
0.0
 11
2469.675063679459
 21
826.2523321883898
 31
0.0
  0
POLYLINE
  5
AA7
  8
__-1
  6
CONTINUOUS
 62
     7
 66
     1
 10
0.0
 20
0.0
 30
0.0
 70
   129
  0
VERTEX
  5
AA8
  8
__-1
  6
CONTINUOUS
 62
     7
 10
2449.675063679459
 20
803.7523321883898
 30
0.0
  0
VERTEX
  5
AA9
  8
__-1
  6
CONTINUOUS
 62
     7
 10
2461.675063679459
 20
803.7523321883898
 30
0.0
  0
VERTEX
  5
AAA
  8
__-1
  6
CONTINUOUS
 62
     7
 10
2461.675063679459
 20
683.7523321883898
 30
0.0
  0
VERTEX
  5
AAB
  8
__-1
  6
CONTINUOUS
 62
     7
 10
2449.675063679459
 20
683.7523321883898
 30
0.0
  0
SEQEND
  5
AAC
  8
__-1
  6
CONTINUOUS
 62
     7
  0
POLYLINE
  5
AAD
  8
__-1
  6
CONTINUOUS
 62
     7
 66
     1
 10
0.0
 20
0.0
 30
0.0
 70
   129
  0
VERTEX
  5
AAE
  8
__-1
  6
CONTINUOUS
 62
     7
 10
2494.675063679459
 20
753.7523321883897
 30
0.0
  0
VERTEX
  5
AAF
  8
__-1
  6
CONTINUOUS
 62
     7
 10
2484.675063679459
 20
753.7523321883897
 30
0.0
  0
VERTEX
  5
AB0
  8
__-1
  6
CONTINUOUS
 62
     7
 10
2484.675063679459
 20
759.7523321883898
 30
0.0
  0
VERTEX
  5
AB1
  8
__-1
  6
CONTINUOUS
 62
     7
 10
2494.675063679459
 20
759.7523321883898
 30
0.0
  0
VERTEX
  5
AB2
  8
__-1
  6
CONTINUOUS
 62
     7
 10
2494.675063679459
 20
826.2523321883897
 30
0.0
  0
VERTEX
  5
AB3
  8
__-1
  6
CONTINUOUS
 62
     7
 10
2469.675063679459
 20
826.2523321883898
 30
0.0
  0
VERTEX
  5
AB4
  8
__-1
  6
CONTINUOUS
 62
     7
 10
2469.675063679459
 20
803.7523321883898
 30
0.0
  0
VERTEX
  5
AB5
  8
__-1
  6
CONTINUOUS
 62
     7
 10
2461.675063679459
 20
803.7523321883898
 30
0.0
  0
VERTEX
  5
AB6
  8
__-1
  6
CONTINUOUS
 62
     7
 10
2461.675063679458
 20
683.7523321883898
 30
0.0
  0
VERTEX
  5
AB7
  8
__-1
  6
CONTINUOUS
 62
     7
 10
2469.675063679458
 20
683.7523321883898
 30
0.0
  0
VERTEX
  5
AB8
  8
__-1
  6
CONTINUOUS
 62
     7
 10
2469.675063679459
 20
661.2523321883898
 30
0.0
  0
VERTEX
  5
AB9
  8
__-1
  6
CONTINUOUS
 62
     7
 10
2494.675063679459
 20
661.2523321883898
 30
0.0
  0
SEQEND
  5
ABA
  8
__-1
  6
CONTINUOUS
 62
     7
  0
LINE
  5
ABB
  8
__-1
  6
CONTINUOUS
 62
     7
 10
2621.306971939544
 20
726.2523321883912
 30
0.0
 11
2509.675063679458
 21
726.2523321883912
 31
0.0
  0
LINE
  5
ABC
  8
__-1
  6
CONTINUOUS
 62
     7
 10
2509.675063679458
 20
731.2523321883912
 30
0.0
 11
2621.306971939544
 21
731.2523321883912
 31
0.0
  0
LINE
  5
ABD
  8
__-2
  6
_____-5
 62
     7
 10
2494.675063679459
 20
744.2523321883912
 30
0.0
 11
2621.306971939544
 21
744.2523321883912
 31
0.0
  0
LINE
  5
ABE
  8
__-2
  6
_____-5
 62
     7
 10
2494.675063679459
 20
769.2523321883898
 30
0.0
 11
2621.306971939544
 21
769.2523321883898
 31
0.0
  0
LINE
  5
ABF
  8
__-2
  6
CONTINUOUS
 62
     7
 10
2509.675063679458
 20
732.2523321883912
 30
0.0
 11
2509.675063679458
 21
725.2523321883912
 31
0.0
  0
LINE
  5
AC0
  8
__-2
  6
CONTINUOUS
 62
     7
 10
2509.675063679458
 20
725.2523321883912
 30
0.0
 11
2519.675063679458
 21
725.2523321883912
 31
0.0
  0
LINE
  5
AC1
  8
__-2
  6
CONTINUOUS
 62
     7
 10
2509.675063679458
 20
732.2523321883912
 30
0.0
 11
2519.675063679458
 21
732.2523321883912
 31
0.0
  0
POLYLINE
  5
AC2
  8
__-2
  6
CONTINUOUS
 62
     7
 66
     1
 10
0.0
 20
0.0
 30
0.0
 70
   129
  0
VERTEX
  5
AC3
  8
__-2
  6
CONTINUOUS
 62
     7
 10
2494.675063679459
 20
753.7523321883898
 30
0.0
  0
VERTEX
  5
AC4
  8
__-2
  6
CONTINUOUS
 62
     7
 10
2497.675063679459
 20
753.7523321883898
 30
0.0
  0
VERTEX
  5
AC5
  8
__-2
  6
CONTINUOUS
 62
     7
 10
2497.675063679459
 20
744.2523321883898
 30
0.0
  0
VERTEX
  5
AC6
  8
__-2
  6
CONTINUOUS
 62
     7
 10
2494.675063679459
 20
744.2523321883898
 30
0.0
  0
SEQEND
  5
AC7
  8
__-2
  6
CONTINUOUS
 62
     7
  0
POLYLINE
  5
AC8
  8
__-2
  6
CONTINUOUS
 62
     7
 66
     1
 10
0.0
 20
0.0
 30
0.0
 70
   129
  0
VERTEX
  5
AC9
  8
__-2
  6
CONTINUOUS
 62
     7
 10
2494.675063679459
 20
713.7523321883912
 30
0.0
  0
VERTEX
  5
ACA
  8
__-2
  6
CONTINUOUS
 62
     7
 10
2497.675063679459
 20
713.7523321883912
 30
0.0
  0
VERTEX
  5
ACB
  8
__-2
  6
CONTINUOUS
 62
     7
 10
2497.675063679459
 20
703.7523321883916
 30
0.0
  0
VERTEX
  5
ACC
  8
__-2
  6
CONTINUOUS
 62
     7
 10
2494.675063679459
 20
703.7523321883916
 30
0.0
  0
SEQEND
  5
ACD
  8
__-2
  6
CONTINUOUS
 62
     7
  0
POLYLINE
  5
ACE
  8
__-1
  6
CONTINUOUS
 62
     7
 66
     1
 10
0.0
 20
0.0
 30
0.0
 70
   128
  0
VERTEX
  5
ACF
  8
__-1
  6
CONTINUOUS
 62
     7
 10
2621.306971939544
 20
758.7523321883898
 30
0.0
  0
VERTEX
  5
AD0
  8
__-1
  6
CONTINUOUS
 62
     7
 10
2484.675063679459
 20
758.7523321883898
 30
0.0
  0
VERTEX
  5
AD1
  8
__-1
  6
CONTINUOUS
 62
     7
 10
2484.675063679459
 20
754.7523321883898
 30
0.0
  0
VERTEX
  5
AD2
  8
__-1
  6
CONTINUOUS
 62
     7
 10
2621.306971939544
 20
754.7523321883898
 30
0.0
  0
SEQEND
  5
AD3
  8
__-1
  6
CONTINUOUS
 62
     7
  0
POLYLINE
  5
AD4
  8
__-1
  6
CONTINUOUS
 62
     7
 66
     1
 10
0.0
 20
0.0
 30
0.0
 70
   129
  0
VERTEX
  5
AD5
  8
__-1
  6
CONTINUOUS
 62
     7
 10
2519.675063679458
 20
742.7523321883912
 30
0.0
  0
VERTEX
  5
AD6
  8
__-1
  6
CONTINUOUS
 62
     7
 10
2495.675063679459
 20
742.7523321883912
 30
0.0
  0
VERTEX
  5
AD7
  8
__-1
  6
CONTINUOUS
 62
     7
 10
2495.675063679459
 20
714.7523321883912
 30
0.0
  0
VERTEX
  5
AD8
  8
__-1
  6
CONTINUOUS
 62
     7
 10
2519.675063679458
 20
714.7523321883912
 30
0.0
  0
VERTEX
  5
AD9
  8
__-1
  6
CONTINUOUS
 62
     7
 10
2519.675063679458
 20
725.2523321883912
 30
0.0
  0
VERTEX
  5
ADA
  8
__-1
  6
CONTINUOUS
 62
     7
 10
2509.675063679458
 20
725.2523321883912
 30
0.0
  0
VERTEX
  5
ADB
  8
__-1
  6
CONTINUOUS
 62
     7
 10
2509.675063679458
 20
732.2523321883912
 30
0.0
  0
VERTEX
  5
ADC
  8
__-1
  6
CONTINUOUS
 62
     7
 10
2519.675063679458
 20
732.2523321883912
 30
0.0
  0
SEQEND
  5
ADD
  8
__-1
  6
CONTINUOUS
 62
     7
  0
LINE
  5
ADE
  8
__-1
  6
CONTINUOUS
 62
     7
 10
2519.675063679458
 20
742.7523321883912
 30
0.0
 11
2621.306971939544
 21
742.7523321883912
 31
0.0
  0
LINE
  5
ADF
  8
__-1
  6
CONTINUOUS
 62
     7
 10
2621.306971939544
 20
714.7523321883912
 30
0.0
 11
2519.675063679458
 21
714.7523321883912
 31
0.0
  0
POLYLINE
  5
AE0
  8
__-1
  6
CONTINUOUS
 62
     7
 66
     1
 10
0.0
 20
0.0
 30
0.0
 70
   129
  0
VERTEX
  5
AE1
  8
__-1
  6
CONTINUOUS
 62
     7
 10
2470.675063679459
 20
741.7523321883907
 30
0.0
  0
VERTEX
  5
AE2
  8
__-1
  6
CONTINUOUS
 62
     7
 10
2494.675063679459
 20
741.7523321883907
 30
0.0
  0
VERTEX
  5
AE3
  8
__-1
  6
CONTINUOUS
 62
     7
 10
2494.675063679459
 20
715.7523321883898
 30
0.0
  0
VERTEX
  5
AE4
  8
__-1
  6
CONTINUOUS
 62
     7
 10
2470.675063679459
 20
715.7523321883898
 30
0.0
  0
SEQEND
  5
AE5
  8
__-1
  6
CONTINUOUS
 62
     7
  0
POLYLINE
  5
AE6
  8
__-2
  6
CONTINUOUS
 62
     7
 66
     1
 10
0.0
 20
0.0
 30
0.0
 70
   129
  0
VERTEX
  5
AE7
  8
__-2
  6
CONTINUOUS
 62
     7
 10
2492.175063679459
 20
741.7523321883907
 30
0.0
  0
VERTEX
  5
AE8
  8
__-2
  6
CONTINUOUS
 62
     7
 10
2494.675063679459
 20
741.7523321883907
 30
0.0
  0
VERTEX
  5
AE9
  8
__-2
  6
CONTINUOUS
 62
     7
 10
2494.675063679459
 20
715.7523321883903
 30
0.0
  0
VERTEX
  5
AEA
  8
__-2
  6
CONTINUOUS
 62
     7
 10
2492.175063679459
 20
715.7523321883903
 30
0.0
  0
SEQEND
  5
AEB
  8
__-2
  6
CONTINUOUS
 62
     7
  0
LINE
  5
AEC
  8
__-2
  6
_____-5
 62
     7
 10
2470.675063679459
 20
741.7523321883907
 30
0.0
 11
2492.175063679459
 21
715.7523321883903
 31
0.0
  0
LINE
  5
AED
  8
__-2
  6
_____-5
 62
     7
 10
2492.175063679459
 20
741.7523321883907
 30
0.0
 11
2470.675063679459
 21
715.7523321883898
 31
0.0
  0
INSERT
  5
AEE
  8
__-1
 62
     7
  2
____-193
 10
0.0
 20
0.0
 30
0.0
  0
INSERT
  5
AEF
  8
__-1
 62
     7
  2
____-195
 10
0.0
 20
0.0
 30
0.0
  0
POLYLINE
  5
AF0
  8
__-2
  6
CONTINUOUS
 62
     1
 66
     1
 10
0.0
 20
0.0
 30
0.0
 70
   129
  0
VERTEX
  5
AF1
  8
__-2
  6
CONTINUOUS
 62
     1
 10
2492.175063679459
 20
741.7523321883907
 30
0.0
  0
VERTEX
  5
AF2
  8
__-2
  6
CONTINUOUS
 62
     1
 10
2494.675063679459
 20
741.7523321883907
 30
0.0
  0
VERTEX
  5
AF3
  8
__-2
  6
CONTINUOUS
 62
     1
 10
2494.675063679459
 20
715.7523321883903
 30
0.0
  0
VERTEX
  5
AF4
  8
__-2
  6
CONTINUOUS
 62
     1
 10
2492.175063679459
 20
715.7523321883903
 30
0.0
  0
SEQEND
  5
AF5
  8
__-2
  6
CONTINUOUS
 62
     1
  0
INSERT
  5
AF6
  8
__-2
 62
     7
  2
____-196
 10
0.0
 20
0.0
 30
0.0
  0
INSERT
  5
AF7
  8
__-2
 62
     7
  2
____-197
 10
0.0
 20
0.0
 30
0.0
  0
ENDBLK
  5
309
  8
0
  0
BLOCK
  8
0
  2
____-198
 70
     0
 10
0.0
 20
0.0
 30
0.0
  3
____-198
  1

  0
TEXT
  5
AF8
  8
__-1
 62
     7
 10
320.4096178483424
 20
115.4078717839204
 30
0.0
 40
2.124016203703703
  1
165
 50
90.0
  7
______MEDIUM
 11
318.2856016446386
 21
115.4078717839204
 31
0.0
 73
     3
  0
ENDBLK
  5
30D
  8
0
  0
BLOCK
  8
0
  2
____-199
 70
     0
 10
0.0
 20
0.0
 30
0.0
  3
____-199
  1

  0
LINE
  5
AF9
  8
__-1
  6
CONTINUOUS
 62
     7
 10
312.6311734038978
 20
90.25811592454536
 30
0.0
 11
322.6311734038978
 21
90.25811592454536
 31
0.0
  0
LINE
  5
AFA
  8
__-1
  6
CONTINUOUS
 62
     7
 10
312.6311734038978
 20
145.2581159245454
 30
0.0
 11
322.6311734038978
 21
145.2581159245454
 31
0.0
  0
LINE
  5
AFB
  8
__-1
  6
CONTINUOUS
 62
     7
 10
322.6311734038978
 20
90.25811592454536
 30
0.0
 11
322.6311734038978
 21
145.2581159245454
 31
0.0
  0
CIRCLE
  5
AFC
  8
__-1
  6
CONTINUOUS
 62
     7
 10
322.6311734038978
 20
90.25811592454536
 30
0.0
 40
0.2999816894531477
  0
CIRCLE
  5
AFD
  8
__-1
  6
CONTINUOUS
 62
     7
 10
322.6311734038978
 20
145.2581159245454
 30
0.0
 40
0.2999816894531477
  0
INSERT
  5
AFE
  8
__-1
 62
     7
  2
____-198
 10
0.0
 20
0.0
 30
0.0
  0
ENDBLK
  5
310
  8
0
  0
BLOCK
  8
0
  2
____-200
 70
     0
 10
0.0
 20
0.0
 30
0.0
  3
____-200
  1

  0
TEXT
  5
AFF
  8
__-1
 62
     7
 10
266.8256425404001
 20
155.8130048134343
 30
0.0
 40
2.124016203703703
  1
25
  7
______MEDIUM
 11
266.8256425404001
 21
157.937021017138
 31
0.0
 73
     3
  0
ENDBLK
  5
313
  8
0
  0
BLOCK
  8
0
  2
____-201
 70
     0
 10
0.0
 20
0.0
 30
0.0
  3
____-201
  1

  0
LINE
  5
B00
  8
__-1
  6
CONTINUOUS
 62
     7
 10
272.5591386341501
 20
148.5914492578787
 30
0.0
 11
272.5591386341501
 21
153.5914492578787
 31
0.0
  0
LINE
  5
B01
  8
__-1
  6
CONTINUOUS
 62
     7
 10
264.2258053008167
 20
148.5914492578787
 30
0.0
 11
264.2258053008167
 21
153.5914492578787
 31
0.0
  0
LINE
  5
B02
  8
__-1
  6
CONTINUOUS
 62
     7
 10
272.5591386341501
 20
153.5914492578787
 30
0.0
 11
264.2258053008167
 21
153.5914492578787
 31
0.0
  0
CIRCLE
  5
B03
  8
__-1
  6
CONTINUOUS
 62
     7
 10
272.5591386341501
 20
153.5914492578787
 30
0.0
 40
0.2999816894531477
  0
CIRCLE
  5
B04
  8
__-1
  6
CONTINUOUS
 62
     7
 10
264.2258053008167
 20
153.5914492578787
 30
0.0
 40
0.2999816894531477
  0
INSERT
  5
B05
  8
__-1
 62
     7
  2
____-200
 10
0.0
 20
0.0
 30
0.0
  0
ENDBLK
  5
316
  8
0
  0
BLOCK
  8
0
  2
____-202
 70
     0
 10
0.0
 20
0.0
 30
0.0
  3
____-202
  1

  0
TEXT
  5
B06
  8
__-1
 62
     7
 10
255.2974162774599
 20
142.0246198307954
 30
0.0
 40
2.124016203703703
  1
10
 50
90.0
  7
______MEDIUM
 11
253.1734000737562
 21
142.0246198307954
 31
0.0
 73
     3
  0
TEXT
  5
B07
  8
__-1
 62
     7
 10
260.8129718330155
 20
140.7692270356565
 30
0.0
 40
2.124016203703703
  1
チリ
 50
90.0
  7
______MEDIUM
 11
258.6889556293118
 21
140.7692270356565
 31
0.0
 73
     3
  0
ENDBLK
  5
319
  8
0
  0
BLOCK
  8
0
  2
____-203
 70
     0
 10
0.0
 20
0.0
 30
0.0
  3
____-203
  1

  0
LINE
  5
B08
  8
__-1
  6
CONTINUOUS
 62
     7
 10
262.5189718330155
 20
145.2581159245454
 30
0.0
 11
257.5189718330155
 21
145.2581159245454
 31
0.0
  0
LINE
  5
B09
  8
__-1
  6
CONTINUOUS
 62
     7
 10
262.5189718330155
 20
141.924782591212
 30
0.0
 11
257.5189718330155
 21
141.924782591212
 31
0.0
  0
LINE
  5
B0A
  8
__-1
  6
CONTINUOUS
 62
     7
 10
257.5189718330155
 20
145.2581159245454
 30
0.0
 11
257.5189718330155
 21
141.924782591212
 31
0.0
  0
CIRCLE
  5
B0B
  8
__-1
  6
CONTINUOUS
 62
     7
 10
257.5189718330155
 20
145.2581159245454
 30
0.0
 40
0.2999816894531477
  0
CIRCLE
  5
B0C
  8
__-1
  6
CONTINUOUS
 62
     7
 10
257.5189718330155
 20
141.924782591212
 30
0.0
 40
0.2999816894531477
  0
INSERT
  5
B0D
  8
__-1
 62
     7
  2
____-202
 10
0.0
 20
0.0
 30
0.0
  0
ENDBLK
  5
31C
  8
0
  0
BLOCK
  8
0
  2
____-204
 70
     0
 10
0.0
 20
0.0
 30
0.0
  3
____-204
  1

  0
TEXT
  5
B0E
  8
__-1
 62
     7
 10
255.2974162774599
 20
90.3579531641287
 30
0.0
 40
2.124016203703703
  1
10
 50
90.0
  7
______MEDIUM
 11
253.1734000737562
 21
90.3579531641287
 31
0.0
 73
     3
  0
TEXT
  5
B0F
  8
__-1
 62
     7
 10
260.8129718330155
 20
89.10256036898983
 30
0.0
 40
2.124016203703703
  1
チリ
 50
90.0
  7
______MEDIUM
 11
258.6889556293118
 21
89.10256036898983
 31
0.0
 73
     3
  0
ENDBLK
  5
31F
  8
0
  0
BLOCK
  8
0
  2
____-205
 70
     0
 10
0.0
 20
0.0
 30
0.0
  3
____-205
  1

  0
LINE
  5
B10
  8
__-1
  6
CONTINUOUS
 62
     7
 10
262.5189718330155
 20
93.59144925787871
 30
0.0
 11
257.5189718330155
 21
93.59144925787871
 31
0.0
  0
LINE
  5
B11
  8
__-1
  6
CONTINUOUS
 62
     7
 10
262.5189718330155
 20
90.25811592454536
 30
0.0
 11
257.5189718330155
 21
90.25811592454536
 31
0.0
  0
LINE
  5
B12
  8
__-1
  6
CONTINUOUS
 62
     7
 10
257.5189718330155
 20
93.59144925787871
 30
0.0
 11
257.5189718330155
 21
90.25811592454536
 31
0.0
  0
CIRCLE
  5
B13
  8
__-1
  6
CONTINUOUS
 62
     7
 10
257.5189718330155
 20
93.59144925787871
 30
0.0
 40
0.2999816894531477
  0
CIRCLE
  5
B14
  8
__-1
  6
CONTINUOUS
 62
     7
 10
257.5189718330155
 20
90.25811592454536
 30
0.0
 40
0.2999816894531477
  0
INSERT
  5
B15
  8
__-1
 62
     7
  2
____-204
 10
0.0
 20
0.0
 30
0.0
  0
ENDBLK
  5
322
  8
0
  0
BLOCK
  8
0
  2
____-206
 70
     0
 10
0.0
 20
0.0
 30
0.0
  3
____-206
  1

  0
TEXT
  5
B16
  8
__-1
 62
     7
 10
257.9923092070667
 20
114.8973368505579
 30
0.0
 40
2.124016203703703
  1
12
  7
______MEDIUM
 11
257.9923092070667
 21
117.0213530542616
 31
0.0
 73
     3
  0
ENDBLK
  5
325
  8
0
  0
BLOCK
  8
0
  2
____-207
 70
     0
 10
0.0
 20
0.0
 30
0.0
  3
____-207
  1

  0
LINE
  5
B17
  8
__-1
  6
CONTINUOUS
 62
     7
 10
257.55913863415
 20
112.6757812950024
 30
0.0
 11
261.55913863415
 21
112.6757812950024
 31
0.0
  0
CIRCLE
  5
B18
  8
__-1
  6
CONTINUOUS
 62
     7
 10
257.55913863415
 20
112.6757812950024
 30
0.0
 40
0.2999816894531477
  0
CIRCLE
  5
B19
  8
__-1
  6
CONTINUOUS
 62
     7
 10
261.55913863415
 20
112.6757812950024
 30
0.0
 40
0.2999816894531477
  0
INSERT
  5
B1A
  8
__-1
 62
     7
  2
____-206
 10
0.0
 20
0.0
 30
0.0
  0
ENDBLK
  5
328
  8
0
  0
BLOCK
  8
0
  2
____-208
 70
     0
 10
0.0
 20
0.0
 30
0.0
  3
____-208
  1

  0
TEXT
  5
B1B
  8
__-1
 62
     7
 10
262.2757239206084
 20
114.8973368505579
 30
0.0
 40
2.124016203703703
  1
9
  7
______MEDIUM
 11
262.2757239206084
 21
117.0213530542617
 31
0.0
 73
     3
  0
ENDBLK
  5
32B
  8
0
  0
BLOCK
  8
0
  2
____-209
 70
     0
 10
0.0
 20
0.0
 30
0.0
  3
____-209
  1

  0
LINE
  5
B1C
  8
__-1
  6
CONTINUOUS
 62
     7
 10
264.55913863415
 20
112.6757812950024
 30
0.0
 11
261.55913863415
 21
112.6757812950024
 31
0.0
  0
CIRCLE
  5
B1D
  8
__-1
  6
CONTINUOUS
 62
     7
 10
264.55913863415
 20
112.6757812950024
 30
0.0
 40
0.2999816894531477
  0
CIRCLE
  5
B1E
  8
__-1
  6
CONTINUOUS
 62
     7
 10
261.55913863415
 20
112.6757812950024
 30
0.0
 40
0.2999816894531477
  0
INSERT
  5
B1F
  8
__-1
 62
     7
  2
____-208
 10
0.0
 20
0.0
 30
0.0
  0
ENDBLK
  5
32E
  8
0
  0
BLOCK
  8
0
  2
____-210
 70
     0
 10
0.0
 20
0.0
 30
0.0
  3
____-210
  1

  0
TEXT
  5
B20
  8
__-1
 62
     7
 10
268.6401449141155
 20
113.237450420563
 30
0.0
 40
2.124016203703703
  1
24
  7
______MEDIUM
 11
268.6401449141155
 21
115.3614666242667
 31
0.0
 73
     3
  0
ENDBLK
  5
331
  8
0
  0
BLOCK
  8
0
  2
____-211
 70
     0
 10
0.0
 20
0.0
 30
0.0
  3
____-211
  1

  0
LINE
  5
B21
  8
__-1
  6
CONTINUOUS
 62
     7
 10
272.5591386341501
 20
112.6757812950024
 30
0.0
 11
264.55913863415
 21
112.6757812950024
 31
0.0
  0
CIRCLE
  5
B22
  8
__-1
  6
CONTINUOUS
 62
     7
 10
272.5591386341501
 20
112.6757812950024
 30
0.0
 40
0.2999816894531477
  0
CIRCLE
  5
B23
  8
__-1
  6
CONTINUOUS
 62
     7
 10
264.55913863415
 20
112.6757812950024
 30
0.0
 40
0.2999816894531477
  0
INSERT
  5
B24
  8
__-1
 62
     7
  2
____-210
 10
0.0
 20
0.0
 30
0.0
  0
ENDBLK
  5
334
  8
0
  0
BLOCK
  8
0
  2
____-212
 70
     0
 10
0.0
 20
0.0
 30
0.0
  3
____-212
  1

  0
TEXT
  5
B25
  8
__-1
 62
     7
 10
267.641370451583
 20
109.078085839853
 30
0.0
 40
2.124016203703703
  1
26
 50
90.0
  7
______MEDIUM
 11
265.5173542478793
 21
109.078085839853
 31
0.0
 73
     3
  0
ENDBLK
  5
337
  8
0
  0
BLOCK
  8
0
  2
____-213
 70
     0
 10
0.0
 20
0.0
 30
0.0
  3
____-213
  1

  0
LINE
  5
B26
  8
__-1
  6
CONTINUOUS
 62
     7
 10
268.3728916145736
 20
117.091449257879
 30
0.0
 11
268.3728916145736
 21
108.424782591212
 31
0.0
  0
CIRCLE
  5
B27
  8
__-1
  6
CONTINUOUS
 62
     7
 10
268.3728916145736
 20
117.091449257879
 30
0.0
 40
0.2999816894531477
  0
CIRCLE
  5
B28
  8
__-1
  6
CONTINUOUS
 62
     7
 10
268.3728916145736
 20
108.424782591212
 30
0.0
 40
0.2999816894531477
  0
INSERT
  5
B29
  8
__-1
 62
     7
  2
____-212
 10
0.0
 20
0.0
 30
0.0
  0
ENDBLK
  5
33A
  8
0
  0
BLOCK
  8
0
  2
____-214
 70
     0
 10
0.0
 20
0.0
 30
0.0
  3
____-214
  1

  0
TEXT
  5
B2A
  8
__-1
 62
     7
 10
267.6513360590181
 20
101.5246198307954
 30
0.0
 40
2.124016203703703
  1
32
 50
90.0
  7
______MEDIUM
 11
265.5273198553144
 21
101.5246198307954
 31
0.0
 73
     3
  0
ENDBLK
  5
33D
  8
0
  0
BLOCK
  8
0
  2
____-215
 70
     0
 10
0.0
 20
0.0
 30
0.0
  3
____-215
  1

  0
LINE
  5
B2B
  8
__-1
  6
CONTINUOUS
 62
     7
 10
266.3677064293885
 20
97.75811592454536
 30
0.0
 11
268.3728916145736
 21
97.75811592454536
 31
0.0
  0
LINE
  5
B2C
  8
__-1
  6
CONTINUOUS
 62
     7
 10
270.3780767997588
 20
108.424782591212
 30
0.0
 11
268.3728916145736
 21
108.424782591212
 31
0.0
  0
LINE
  5
B2D
  8
__-1
  6
CONTINUOUS
 62
     7
 10
268.3728916145736
 20
97.75811592454536
 30
0.0
 11
268.3728916145736
 21
108.424782591212
 31
0.0
  0
CIRCLE
  5
B2E
  8
__-1
  6
CONTINUOUS
 62
     7
 10
268.3728916145736
 20
97.75811592454536
 30
0.0
 40
0.2999816894531477
  0
CIRCLE
  5
B2F
  8
__-1
  6
CONTINUOUS
 62
     7
 10
268.3728916145736
 20
108.424782591212
 30
0.0
 40
0.2999816894531477
  0
INSERT
  5
B30
  8
__-1
 62
     7
  2
____-214
 10
0.0
 20
0.0
 30
0.0
  0
ENDBLK
  5
340
  8
0
  0
BLOCK
  8
0
  2
____-216
 70
     0
 10
0.0
 20
0.0
 30
0.0
  3
____-216
  1

  0
TEXT
  5
B31
  8
__-1
 62
     7
 10
259.3256425404
 20
155.8130048134344
 30
0.0
 40
2.124016203703703
  1
20
  7
______MEDIUM
 11
259.3256425404
 21
157.9370210171381
 31
0.0
 73
     3
  0
ENDBLK
  5
343
  8
0
  0
BLOCK
  8
0
  2
____-217
 70
     0
 10
0.0
 20
0.0
 30
0.0
  3
____-217
  1

  0
LINE
  5
B32
  8
__-1
  6
CONTINUOUS
 62
     7
 10
257.55913863415
 20
148.5914492578788
 30
0.0
 11
257.55913863415
 21
153.5914492578788
 31
0.0
  0
LINE
  5
B33
  8
__-1
  6
CONTINUOUS
 62
     7
 10
264.2258053008167
 20
148.5914492578788
 30
0.0
 11
264.2258053008167
 21
153.5914492578788
 31
0.0
  0
LINE
  5
B34
  8
__-1
  6
CONTINUOUS
 62
     7
 10
257.55913863415
 20
153.5914492578788
 30
0.0
 11
264.2258053008167
 21
153.5914492578788
 31
0.0
  0
CIRCLE
  5
B35
  8
__-1
  6
CONTINUOUS
 62
     7
 10
257.55913863415
 20
153.5914492578788
 30
0.0
 40
0.2999816894531477
  0
CIRCLE
  5
B36
  8
__-1
  6
CONTINUOUS
 62
     7
 10
264.2258053008167
 20
153.5914492578788
 30
0.0
 40
0.2999816894531477
  0
INSERT
  5
B37
  8
__-1
 62
     7
  2
____-216
 10
0.0
 20
0.0
 30
0.0
  0
ENDBLK
  5
346
  8
0
  0
BLOCK
  8
0
  2
____-218
 70
     0
 10
0.0
 20
0.0
 30
0.0
  3
____-218
  1

  0
TEXT
  5
B38
  8
__-1
 62
     7
 10
266.8256425404001
 20
84.1463381467676
 30
0.0
 40
2.124016203703703
  1
25
  7
______MEDIUM
 11
266.8256425404001
 21
86.27035435047131
 31
0.0
 73
     3
  0
ENDBLK
  5
349
  8
0
  0
BLOCK
  8
0
  2
____-219
 70
     0
 10
0.0
 20
0.0
 30
0.0
  3
____-219
  1

  0
LINE
  5
B39
  8
__-1
  6
CONTINUOUS
 62
     7
 10
272.5591386341501
 20
86.92478259121204
 30
0.0
 11
272.5591386341501
 21
81.92478259121204
 31
0.0
  0
LINE
  5
B3A
  8
__-1
  6
CONTINUOUS
 62
     7
 10
264.2258053008167
 20
86.92478259121204
 30
0.0
 11
264.2258053008167
 21
81.92478259121204
 31
0.0
  0
LINE
  5
B3B
  8
__-1
  6
CONTINUOUS
 62
     7
 10
272.5591386341501
 20
81.92478259121204
 30
0.0
 11
264.2258053008167
 21
81.92478259121204
 31
0.0
  0
CIRCLE
  5
B3C
  8
__-1
  6
CONTINUOUS
 62
     7
 10
272.5591386341501
 20
81.92478259121204
 30
0.0
 40
0.2999816894531477
  0
CIRCLE
  5
B3D
  8
__-1
  6
CONTINUOUS
 62
     7
 10
264.2258053008167
 20
81.92478259121204
 30
0.0
 40
0.2999816894531477
  0
INSERT
  5
B3E
  8
__-1
 62
     7
  2
____-218
 10
0.0
 20
0.0
 30
0.0
  0
ENDBLK
  5
34C
  8
0
  0
BLOCK
  8
0
  2
____-220
 70
     0
 10
0.0
 20
0.0
 30
0.0
  3
____-220
  1

  0
TEXT
  5
B3F
  8
__-1
 62
     7
 10
259.3256425404
 20
84.14633814676758
 30
0.0
 40
2.124016203703703
  1
20
  7
______MEDIUM
 11
259.3256425404
 21
86.27035435047128
 31
0.0
 73
     3
  0
ENDBLK
  5
34F
  8
0
  0
BLOCK
  8
0
  2
____-221
 70
     0
 10
0.0
 20
0.0
 30
0.0
  3
____-221
  1

  0
LINE
  5
B40
  8
__-1
  6
CONTINUOUS
 62
     7
 10
257.55913863415
 20
86.92478259121204
 30
0.0
 11
257.55913863415
 21
81.92478259121202
 31
0.0
  0
LINE
  5
B41
  8
__-1
  6
CONTINUOUS
 62
     7
 10
264.2258053008167
 20
86.92478259121204
 30
0.0
 11
264.2258053008167
 21
81.92478259121202
 31
0.0
  0
LINE
  5
B42
  8
__-1
  6
CONTINUOUS
 62
     7
 10
257.55913863415
 20
81.92478259121202
 30
0.0
 11
264.2258053008167
 21
81.92478259121202
 31
0.0
  0
CIRCLE
  5
B43
  8
__-1
  6
CONTINUOUS
 62
     7
 10
257.55913863415
 20
81.92478259121202
 30
0.0
 40
0.2999816894531477
  0
CIRCLE
  5
B44
  8
__-1
  6
CONTINUOUS
 62
     7
 10
264.2258053008167
 20
81.92478259121202
 30
0.0
 40
0.2999816894531477
  0
INSERT
  5
B45
  8
__-1
 62
     7
  2
____-220
 10
0.0
 20
0.0
 30
0.0
  0
ENDBLK
  5
352
  8
0
  0
BLOCK
  8
0
  2
____-222
 70
     0
 10
0.0
 20
0.0
 30
0.0
  3
____-222
  1

  0
TEXT
  5
B46
  8
__-1
 62
     7
 10
315.2182981167373
 20
117.7023976085732
 30
0.0
 40
2.124016203703703
  1
25
 50
90.0
  7
______MEDIUM
 11
313.0942819130336
 21
117.7023976085732
 31
0.0
 73
     3
  0
TEXT
  5
B47
  8
__-1
 62
     7
 10
315.2182981167373
 20
120.8360564627398
 30
0.0
 40
2.124016203703703
  1
程度
 50
90.0
  7
______MEDIUM
 11
313.0942819130336
 21
120.8360564627398
 31
0.0
 73
     3
  0
ENDBLK
  5
355
  8
0
  0
BLOCK
  8
0
  2
____-223
 70
     0
 10
0.0
 20
0.0
 30
0.0
  3
____-223
  1

  0
LINE
  5
B48
  8
__-1
  6
CONTINUOUS
 62
     7
 10
312.4398536722929
 20
126.2581159245454
 30
0.0
 11
317.4398536722929
 21
126.2581159245454
 31
0.0
  0
LINE
  5
B49
  8
__-1
  6
CONTINUOUS
 62
     7
 10
312.4398536722929
 20
117.924782591212
 30
0.0
 11
317.4398536722929
 21
117.924782591212
 31
0.0
  0
LINE
  5
B4A
  8
__-1
  6
CONTINUOUS
 62
     7
 10
317.4398536722929
 20
126.2581159245454
 30
0.0
 11
317.4398536722929
 21
117.924782591212
 31
0.0
  0
CIRCLE
  5
B4B
  8
__-1
  6
CONTINUOUS
 62
     7
 10
317.4398536722929
 20
126.2581159245454
 30
0.0
 40
0.2999816894531477
  0
CIRCLE
  5
B4C
  8
__-1
  6
CONTINUOUS
 62
     7
 10
317.4398536722929
 20
117.924782591212
 30
0.0
 40
0.2999816894531477
  0
INSERT
  5
B4D
  8
__-1
 62
     7
  2
____-222
 10
0.0
 20
0.0
 30
0.0
  0
ENDBLK
  5
358
  8
0
  0
BLOCK
  8
0
  2
____-224
 70
     0
 10
0.0
 20
0.0
 30
0.0
  3
____-224
  1

  0
TEXT
  5
B4E
  8
__-1
 62
     7
 10
315.2182981167373
 20
108.3690642752398
 30
0.0
 40
2.124016203703703
  1
28
 50
90.0
  7
______MEDIUM
 11
313.0942819130336
 21
108.3690642752398
 31
0.0
 73
     3
  0
TEXT
  5
B4F
  8
__-1
 62
     7
 10
315.2182981167373
 20
111.5027231294065
 30
0.0
 40
2.124016203703703
  1
程度
 50
90.0
  7
______MEDIUM
 11
313.0942819130336
 21
111.5027231294065
 31
0.0
 73
     3
  0
ENDBLK
  5
35B
  8
0
  0
BLOCK
  8
0
  2
____-225
 70
     0
 10
0.0
 20
0.0
 30
0.0
  3
____-225
  1

  0
LINE
  5
B50
  8
__-1
  6
CONTINUOUS
 62
     7
 10
312.4398536722929
 20
108.0914492578787
 30
0.0
 11
317.4398536722929
 21
108.0914492578787
 31
0.0
  0
LINE
  5
B51
  8
__-1
  6
CONTINUOUS
 62
     7
 10
312.4398536722929
 20
117.424782591212
 30
0.0
 11
317.4398536722929
 21
117.424782591212
 31
0.0
  0
LINE
  5
B52
  8
__-1
  6
CONTINUOUS
 62
     7
 10
317.4398536722929
 20
108.0914492578787
 30
0.0
 11
317.4398536722929
 21
117.424782591212
 31
0.0
  0
CIRCLE
  5
B53
  8
__-1
  6
CONTINUOUS
 62
     7
 10
317.4398536722929
 20
108.0914492578787
 30
0.0
 40
0.2999816894531477
  0
CIRCLE
  5
B54
  8
__-1
  6
CONTINUOUS
 62
     7
 10
317.4398536722929
 20
117.424782591212
 30
0.0
 40
0.2999816894531477
  0
INSERT
  5
B55
  8
__-1
 62
     7
  2
____-224
 10
0.0
 20
0.0
 30
0.0
  0
ENDBLK
  5
35E
  8
0
  0
BLOCK
  8
0
  2
____-226
 70
     0
 10
0.0
 20
0.0
 30
0.0
  3
____-226
  1

  0
TEXT
  5
B56
  8
__-1
 62
     7
 10
291.4243324593574
 20
122.7953590855137
 30
0.0
 40
2.124016203703703
  1
FIX
  7
______MEDIUM
 11
291.4243324593574
 21
124.9193752892174
 31
0.0
 73
     3
  0
TEXT
  5
B57
  8
__-1
 62
     7
 10
289.1220899825055
 20
114.098460418232
 30
0.0
 40
2.124016203703703
  1
可動障子
  7
______MEDIUM
 11
289.1220899825055
 21
116.2224766219357
 31
0.0
 73
     3
  0
POINT
  5
B58
  8
__-1
  6
CONTINUOUS
 62
     3
 10
272.5591386341501
 20
123.0914492578787
 30
0.0
  0
ENDBLK
  5
361
  8
0
  0
BLOCK
  8
0
  2
____-227
 70
     0
 10
0.0
 20
0.0
 30
0.0
  3
____-227
  1

  0
INSERT
  5
B59
  8
__-1
 62
     7
  2
____-199
 10
0.0
 20
0.0
 30
0.0
  0
INSERT
  5
B5A
  8
__-1
 62
     7
  2
____-201
 10
0.0
 20
0.0
 30
0.0
  0
INSERT
  5
B5B
  8
__-1
 62
     7
  2
____-203
 10
0.0
 20
0.0
 30
0.0
  0
INSERT
  5
B5C
  8
__-1
 62
     7
  2
____-205
 10
0.0
 20
0.0
 30
0.0
  0
INSERT
  5
B5D
  8
__-1
 62
     7
  2
____-207
 10
0.0
 20
0.0
 30
0.0
  0
INSERT
  5
B5E
  8
__-1
 62
     7
  2
____-209
 10
0.0
 20
0.0
 30
0.0
  0
INSERT
  5
B5F
  8
__-1
 62
     7
  2
____-211
 10
0.0
 20
0.0
 30
0.0
  0
INSERT
  5
B60
  8
__-1
 62
     7
  2
____-213
 10
0.0
 20
0.0
 30
0.0
  0
INSERT
  5
B61
  8
__-1
 62
     7
  2
____-215
 10
0.0
 20
0.0
 30
0.0
  0
INSERT
  5
B62
  8
__-1
 62
     7
  2
____-217
 10
0.0
 20
0.0
 30
0.0
  0
INSERT
  5
B63
  8
__-1
 62
     7
  2
____-219
 10
0.0
 20
0.0
 30
0.0
  0
INSERT
  5
B64
  8
__-1
 62
     7
  2
____-221
 10
0.0
 20
0.0
 30
0.0
  0
INSERT
  5
B65
  8
__-1
 62
     7
  2
____-223
 10
0.0
 20
0.0
 30
0.0
  0
INSERT
  5
B66
  8
__-1
 62
     7
  2
____-225
 10
0.0
 20
0.0
 30
0.0
  0
TEXT
  5
B67
  8
__-1
 62
     7
 10
235.9311358314438
 20
138.5615979697142
 30
0.0
 40
2.124016203703703
  1
PB12.5
  7
______MEDIUM
 11
235.9311358314438
 21
140.6856141734179
 31
0.0
 73
     3
  0
TEXT
  5
B68
  8
__-1
 62
     7
 10
235.9311358314438
 20
94.3670394711255
 30
0.0
 40
2.124016203703703
  1
PB12.5
  7
______MEDIUM
 11
235.9311358314438
 21
96.4910556748292
 31
0.0
 73
     3
  0
INSERT
  5
B69
  8
__-1
 62
     7
  2
____-226
 10
0.0
 20
0.0
 30
0.0
  0
ENDBLK
  5
364
  8
0
  0
BLOCK
  8
0
  2
__-__-5
 70
     0
 10
0.0
 20
0.0
 30
0.0
  3
__-__-5
  1

  0
POLYLINE
  5
B6A
  8
__-2
  6
CONTINUOUS
 62
     7
 66
     1
 10
0.0
 20
0.0
 30
0.0
 70
   129
  0
VERTEX
  5
B6B
  8
__-2
  6
CONTINUOUS
 62
     7
 10
-23.5679904844496
 20
-0.5715000000000003
 30
0.0
  0
VERTEX
  5
B6C
  8
__-2
  6
CONTINUOUS
 62
     7
 10
23.5679904844496
 20
-0.5715000000000003
 30
0.0
  0
VERTEX
  5
B6D
  8
__-2
  6
CONTINUOUS
 62
     7
 10
23.5679904844496
 20
-6.794499999999999
 30
0.0
  0
VERTEX
  5
B6E
  8
__-2
  6
CONTINUOUS
 62
     7
 10
-23.5679904844496
 20
-6.794499999999999
 30
0.0
  0
SEQEND
  5
B6F
  8
__-2
  6
CONTINUOUS
 62
     7
  0
TEXT
  5
B70
  8
__-2
 62
     7
 10
-22.36469586588542
 20
-4.286249999999999
 30
0.0
 40
2.389518229166667
  1
部分横断面図　150幅　S=1：3
  7
______MEDIUM
 72
     1
 11
0.0
 21
-1.896731770833333
 31
0.0
 73
     3
  0
ENDBLK
  5
367
  8
0
  0
BLOCK
  8
0
  2
__-__-6
 70
     0
 10
0.0
 20
0.0
 30
0.0
  3
__-__-6
  1

  0
POLYLINE
  5
B71
  8
__-2
  6
CONTINUOUS
 62
     7
 66
     1
 10
0.0
 20
0.0
 30
0.0
 70
   129
  0
VERTEX
  5
B72
  8
__-2
  6
CONTINUOUS
 62
     7
 10
-23.5679904844496
 20
-0.5715000000000003
 30
0.0
  0
VERTEX
  5
B73
  8
__-2
  6
CONTINUOUS
 62
     7
 10
23.5679904844496
 20
-0.5715000000000003
 30
0.0
  0
VERTEX
  5
B74
  8
__-2
  6
CONTINUOUS
 62
     7
 10
23.5679904844496
 20
-6.794499999999999
 30
0.0
  0
VERTEX
  5
B75
  8
__-2
  6
CONTINUOUS
 62
     7
 10
-23.5679904844496
 20
-6.794499999999999
 30
0.0
  0
SEQEND
  5
B76
  8
__-2
  6
CONTINUOUS
 62
     7
  0
TEXT
  5
B77
  8
__-2
 62
     7
 10
-22.36469586588542
 20
-4.286249999999999
 30
0.0
 40
2.389518229166667
  1
部分横断面図　165幅　S=1：3
  7
______MEDIUM
 72
     1
 11
0.0
 21
-1.896731770833333
 31
0.0
 73
     3
  0
ENDBLK
  5
36A
  8
0
  0
BLOCK
  8
0
  2
_______-8
 70
     0
 10
0.0
 20
0.0
 30
0.0
  3
_______-8
  1

  0
LINE
  5
B78
  8
__-2
  6
CONTINUOUS
 62
     7
 10
-9.052878217442107
 20
0.0
 30
0.0
 11
0.0
 21
0.0
 31
0.0
  0
LINE
  5
B79
  8
__-2
  6
CONTINUOUS
 62
     7
 10
0.0
 20
0.0
 30
0.0
 11
13.335184745969
 21
-23.09721750833579
 31
0.0
  0
TEXT
  5
B7A
  8
__-2
 62
     7
 10
-24.13456918966433
 20
-0.5362222222222224
 30
0.0
 40
2.124016203703704
  1
12mm合板
  7
______MEDIUM
 11
-24.13456918966433
 21
1.587793981481481
 31
0.0
 73
     3
  0
ENDBLK
  5
36D
  8
0
  0
BLOCK
  8
0
  2
_______-9
 70
     0
 10
0.0
 20
0.0
 30
0.0
  3
_______-9
  1

  0
LINE
  5
B7B
  8
__-2
  6
CONTINUOUS
 62
     7
 10
-13.62582486811957
 20
0.0
 30
0.0
 11
0.0
 21
0.0
 31
0.0
  0
LINE
  5
B7C
  8
__-2
  6
CONTINUOUS
 62
     7
 10
0.0
 20
0.0
 30
0.0
 11
2.769113391105655
 21
-4.796245085314339
 31
0.0
  0
TEXT
  5
B7D
  8
__-2
 62
     7
 10
-43.29267209034179
 20
3.979333333333333
 30
0.0
 40
2.124016203703704
  1
切欠きの表面にはめる 
  7
______MEDIUM
 11
-43.29267209034179
 21
6.103349537037037
 31
0.0
 73
     3
  0
TEXT
  5
B7E
  8
__-2
 62
     7
 10
-43.29267209034179
 20
-0.5362222222222215
 30
0.0
 40
2.124016203703704
  1
(金物を隠す為)
  7
______MEDIUM
 11
-43.29267209034179
 21
1.587793981481482
 31
0.0
 73
     3
  0
ENDBLK
  5
370
  8
0
  0
BLOCK
  8
0
  2
_______-10
 70
     0
 10
0.0
 20
0.0
 30
0.0
  3
_______-10
  1

  0
LINE
  5
B7F
  8
__-2
  6
CONTINUOUS
 62
     7
 10
-14.62480722471194
 20
0.0
 30
0.0
 11
0.0
 21
0.0
 31
0.0
  0
LINE
  5
B80
  8
__-2
  6
CONTINUOUS
 62
     7
 10
0.0
 20
0.0
 30
0.0
 11
3.65643335511335
 21
6.333128345545862
 31
0.0
  0
TEXT
  5
B81
  8
__-2
 62
     7
 10
-37.96921521082305
 20
1.721555555555555
 30
0.0
 40
2.124016203703704
  1
切欠き　26×24 
  7
______MEDIUM
 11
-37.96921521082305
 21
3.845571759259259
 31
0.0
 73
     3
  0
TEXT
  5
B82
  8
__-2
 62
     7
 10
-37.96921521082305
 20
-2.794
 30
0.0
 40
2.124016203703704
  1
(金物を埋め込む)
  7
______MEDIUM
 11
-37.96921521082305
 21
-0.6699837962962958
 31
0.0
 73
     3
  0
ENDBLK
  5
373
  8
0
  0
BLOCK
  8
0
  2
_______-11
 70
     0
 10
0.0
 20
0.0
 30
0.0
  3
_______-11
  1

  0
LINE
  5
B83
  8
__-2
  6
CONTINUOUS
 62
     7
 10
9.052878217442107
 20
0.0
 30
0.0
 11
0.0
 21
0.0
 31
0.0
  0
LINE
  5
B84
  8
__-2
  6
CONTINUOUS
 62
     7
 10
0.0
 20
0.0
 30
0.0
 11
-13.079267424854
 21
22.65395570562765
 31
0.0
  0
TEXT
  5
B85
  8
__-2
 62
     7
 10
10.24350321744211
 20
-0.5362222222222224
 30
0.0
 40
2.124016203703704
  1
ガイド　4×10程度
  7
______MEDIUM
 11
10.24350321744211
 21
1.587793981481481
 31
0.0
 73
     3
  0
ENDBLK
  5
376
  8
0
  0
ENDSEC
  0
SECTION
  2
ENTITIES
  0
INSERT
  5
B86
  8
__
 62
     3
  2
____2D
 10
50.32493632054207
 20
254.518713509407
 30
0.0
  0
INSERT
  5
B87
  8
__
 62
     7
  2
____-43
 10
1260.747637447326
 20
550.438961719663
 30
0.0
 41
5.0
 42
5.0
 43
5.0
  0
INSERT
  5
B88
  8
__
 62
     3
  2
___-2_2D
 10
144.3575240178398
 20
254.518713509407
 30
0.0
  0
INSERT
  5
B89
  8
__
 62
     7
  2
____-67
 10
1260.747637447326
 20
550.438961719663
 30
0.0
 41
5.0
 42
5.0
 43
5.0
  0
INSERT
  5
B8A
  8
__
 62
     3
  2
___-3_2D
 10
-1054.99291659959
 20
-162.8576789715932
 30
0.0
 41
1.666666666666667
 42
1.666666666666667
 43
1.666666666666667
  0
INSERT
  5
B8B
  8
__
 62
     7
  2
____-102
 10
1260.747637447326
 20
550.438961719663
 30
0.0
 41
5.0
 42
5.0
 43
5.0
  0
INSERT
  5
B8C
  8
__
 62
     3
  2
___2D
 10
1260.747637447326
 20
550.438961719663
 30
0.0
 41
5.0
 42
5.0
 43
5.0
  0
INSERT
  5
B8D
  8
__
 62
     3
  2
___-4_2D
 10
-2545.239933043863
 20
598.7967837735175
 30
0.0
 41
2.5
 42
2.5
 43
2.5
  0
INSERT
  5
B8E
  8
__
 62
     7
  2
____-119
 10
1260.747637447326
 20
550.438961719663
 30
0.0
 41
5.0
 42
5.0
 43
5.0
  0
INSERT
  5
B8F
  8
__-2
 62
     7
  2
__-__
 10
1101.181856332099
 20
941.4335263842074
 30
0.0
 41
5.0
 42
5.0
 43
5.0
  0
INSERT
  5
B90
  8
__-2
 62
     7
  2
__-__-1
 10
1070.068915139955
 20
21.28212888281217
 30
0.0
 41
5.0
 42
5.0
 43
5.0
  0
INSERT
  5
B91
  8
__-2
 62
     7
  2
__-__-2
 10
1946.289923062186
 20
21.28212888281217
 30
0.0
 41
5.0
 42
5.0
 43
5.0
  0
INSERT
  5
B92
  8
__-2
 62
     7
  2
__-__-3
 10
2441.635269588681
 20
21.28212888281217
 30
0.0
 41
5.0
 42
5.0
 43
5.0
  0
INSERT
  5
B93
  8
__-2
 62
     7
  2
_______
 10
1788.927881259858
 20
211.9251187419279
 30
0.0
 41
5.0
 42
5.0
 43
5.0
  0
INSERT
  5
B94
  8
__-2
 62
     7
  2
_______-1
 10
1260.35366287573
 20
202.2029486715901
 30
0.0
 41
5.0
 42
5.0
 43
5.0
  0
INSERT
  5
B95
  8
__-2
 62
     7
  2
_______-2
 10
1260.35366287573
 20
302.3720081103303
 30
0.0
 41
5.0
 42
5.0
 43
5.0
  0
INSERT
  5
B96
  8
__-2
 62
     7
  2
_______-3
 10
1260.35366287573
 20
610.7616190200288
 30
0.0
 41
5.0
 42
5.0
 43
5.0
  0
INSERT
  5
B97
  8
__-2
 62
     7
  2
_______-4
 10
1260.35366287573
 20
722.280114495745
 30
0.0
 41
5.0
 42
5.0
 43
5.0
  0
INSERT
  5
B98
  8
__-2
 62
     7
  2
_______-5
 10
2736.989352406278
 20
208.4007409981617
 30
0.0
 41
5.0
 42
5.0
 43
5.0
  0
TEXT
  5
B99
  8
__-1
 62
     7
 10
2703.637369604184
 20
28.87016440337785
 30
0.0
 40
7.965060763888888
  1
下窓枠
  7
______MEDIUM
 11
2703.637369604184
 21
36.83522516726674
 31
0.0
 73
     3
  0
POLYLINE
  5
B9A
  8
__-1
  6
DASHED2
 62
     1
 66
     1
 10
0.0
 20
0.0
 30
0.0
 70
   129
  0
VERTEX
  5
B9B
  8
__-1
  6
DASHED2
 62
     1
 10
2185.268189613427
 20
66.51201943240699
 30
0.0
 42
-0.414213562373095
 70
     2
 50
-0.000000000000007
  0
VERTEX
  5
B9C
  8
__-1
  6
DASHED2
 62
     1
 10
2220.201901790187
 20
101.4457316091671
 30
0.0
 42
-0.414213562373095
 70
     2
 50
50.69504207671352
  0
VERTEX
  5
B9D
  8
__-1
  6
DASHED2
 62
     1
 10
2255.135613966947
 20
66.51201943240699
 30
0.0
 42
-0.414213562373095
 70
     2
 50
-0.000000000000014
  0
VERTEX
  5
B9E
  8
__-1
  6
DASHED2
 62
     1
 10
2220.201901790187
 20
31.57830725564685
 30
0.0
 42
-0.414213562373095
 70
     2
 50
-54.60685637650491
  0
VERTEX
  5
B9F
  8
__-1
  6
DASHED2
 62
     1
 10
2185.268189613427
 20
66.51201943240699
 30
0.0
  0
SEQEND
  5
BA0
  8
__-1
  6
DASHED2
 62
     1
  0
LINE
  5
BA1
  8
__-1
  6
CONTINUOUS
 62
     1
 10
2255.135613966947
 20
66.51201943240699
 30
0.0
 11
2542.110265655579
 21
66.51201943240699
 31
0.0
  0
POLYLINE
  5
BA2
  8
__-1
  6
CONTINUOUS
 62
     1
 66
     1
 10
0.0
 20
0.0
 30
0.0
 70
   129
  0
VERTEX
  5
BA3
  8
__-1
  6
CONTINUOUS
 62
     1
 10
2526.235265655579
 20
70.76571286225106
 30
0.0
  0
VERTEX
  5
BA4
  8
__-1
  6
CONTINUOUS
 62
     1
 10
2542.110265655579
 20
66.51201943240699
 30
0.0
  0
VERTEX
  5
BA5
  8
__-1
  6
CONTINUOUS
 62
     1
 10
2526.235265655579
 20
62.25832600256285
 30
0.0
  0
SEQEND
  5
BA6
  8
__-1
  6
CONTINUOUS
 62
     1
  0
INSERT
  5
BA7
  8
__-2
 62
     7
  2
_______-6
 10
2270.392585959525
 20
211.2278506085518
 30
0.0
 41
5.0
 42
5.0
 43
5.0
  0
INSERT
  5
BA8
  8
__-2
 62
     7
  2
_______-7
 10
2308.173302497337
 20
211.2278506085518
 30
0.0
 41
5.0
 42
5.0
 43
5.0
  0
TEXT
  5
BA9
  8
__-1
 62
     7
 10
2630.259900275898
 20
137.1105555555558
 30
0.0
 40
10.62008101851852
  1
下框
  7
______MEDIUM
 11
2630.259900275898
 21
147.7306365740744
 31
0.0
 73
     3
  0
INSERT
  5
BAA
  8
__
 62
     3
  2
___-5_2D
 10
-1234.701702638381
 20
-146.1910123049265
 30
0.0
 41
1.666666666666667
 42
1.666666666666667
 43
1.666666666666667
  0
INSERT
  5
BAB
  8
__
 62
     7
  2
____-155
 10
1260.747637447326
 20
550.438961719663
 30
0.0
 41
5.0
 42
5.0
 43
5.0
  0
INSERT
  5
BAC
  8
__-2
 62
     7
  2
__-__-4
 10
1588.139736959976
 20
941.4335263842074
 30
0.0
 41
5.0
 42
5.0
 43
5.0
  0
INSERT
  5
BAD
  8
__
 62
     3
  2
___-6_2D
 10
-1410.494727421423
 20
-112.8576789715931
 30
0.0
 41
1.666666666666667
 42
1.666666666666667
 43
1.666666666666667
  0
INSERT
  5
BAE
  8
__
 62
     7
  2
____-191
 10
1260.747637447326
 20
550.438961719663
 30
0.0
 41
5.0
 42
5.0
 43
5.0
  0
INSERT
  5
BAF
  8
__
 62
     3
  2
___-7_2D
 10
-1534.248442181022
 20
-100.3576789715932
 30
0.0
 41
1.666666666666667
 42
1.666666666666667
 43
1.666666666666667
  0
INSERT
  5
BB0
  8
__
 62
     7
  2
____-227
 10
1260.747637447326
 20
550.438961719663
 30
0.0
 41
5.0
 42
5.0
 43
5.0
  0
INSERT
  5
BB1
  8
__-2
 62
     7
  2
__-__-5
 10
2079.013378843598
 20
941.4335263842074
 30
0.0
 41
5.0
 42
5.0
 43
5.0
  0
INSERT
  5
BB2
  8
__-2
 62
     7
  2
__-__-6
 10
2621.926330750667
 20
941.4335263842074
 30
0.0
 41
5.0
 42
5.0
 43
5.0
  0
INSERT
  5
BB3
  8
__-2
 62
     7
  2
_______-8
 10
2490.299753459408
 20
1315.804888312266
 30
0.0
 41
5.0
 42
5.0
 43
5.0
  0
INSERT
  5
BB4
  8
__-2
 62
     7
  2
_______-9
 10
2607.676707318109
 20
1153.440602468947
 30
0.0
 41
5.0
 42
5.0
 43
5.0
  0
INSERT
  5
BB5
  8
__-2
 62
     7
  2
_______-10
 10
2589.280100707452
 20
1077.16011451788
 30
0.0
 41
5.0
 42
5.0
 43
5.0
  0
INSERT
  5
BB6
  8
__-2
 62
     7
  2
_______-11
 10
2691.07373589564
 20
968.438961719663
 30
0.0
 41
5.0
 42
5.0
 43
5.0
  0
VIEWPORT
  5
377
 67
     1
  8
0
 10
128.5
 20
97.5
 30
0.0
 40
314.226
 41
222.18
 68
     1
 69
     1
1001
ACAD
1000
MVIEW
1002
{
1070
    16
1010
0.0
1020
0.0
1030
0.0
1010
0.0
1020
0.0
1030
1.0
1040
0.0
1040
222.18
1040
128.5
1040
97.5
1040
50.0
1040
0.0
1040
0.0
1070
     0
1070
   100
1070
     0
1070
     3
1070
     0
1070
     0
1070
     0
1070
     0
1040
0.0
1040
0.0
1040
0.0
1040
10.0
1040
10.0
1040
10.0
1040
10.0
1070
     0
1002
{
1002
}
1002
}
  0
ENDSEC
  0
EOF
