  0
SECTION
  2
HEADER
  9
$ACADVER
  1
AC1009
  9
$INSBASE
 10
0.0
 20
0.0
 30
0.0
  9
$EXTMIN
 10
-4.70052
 20
-21.071400000000001
 30
0.0
  9
$EXTMAX
 10
205.30099999999999
 20
275.93099999999998
 30
0.0
  9
$LIMMIN
 10
0.0
 20
0.0
  9
$LIMMAX
 10
12.0
 20
9.0
  9
$ORTHOMODE
 70
     0
  9
$REGENMODE
 70
     1
  9
$FILLMODE
 70
     1
  9
$QTEXTMODE
 70
     0
  9
$MIRRTEXT
 70
     1
  9
$DRAGMODE
 70
     2
  9
$LTSCALE
 40
1.0
  9
$OSMODE
 70
    37
  9
$ATTMODE
 70
     1
  9
$TEXTSIZE
 40
0.0
  9
$TRACEWID
 40
0.05
  9
$TEXTSTYLE
  7
STANDARD
  9
$CLAYER
  8
0
  9
$CELTYPE
  6
CONTINUOUS
  9
$CECOLOR
 62
   256
  9
$DIMSCALE
 40
1.0
  9
$DIMASZ
 40
0.18
  9
$DIMEXO
 40
0.0625
  9
$DIMDLI
 40
0.38
  9
$DIMRND
 40
0.0
  9
$DIMDLE
 40
0.0
  9
$DIMEXE
 40
0.18
  9
$DIMTP
 40
0.0
  9
$DIMTM
 40
0.0
  9
$DIMTXT
 40
0.18
  9
$DIMCEN
 40
0.09
  9
$DIMTSZ
 40
0.0
  9
$DIMTOL
 70
     0
  9
$DIMLIM
 70
     0
  9
$DIMTIH
 70
     1
  9
$DIMTOH
 70
     1
  9
$DIMSE1
 70
     0
  9
$DIMSE2
 70
     0
  9
$DIMTAD
 70
     0
  9
$DIMZIN
 70
     0
  9
$DIMBLK
  1

  9
$DIMASO
 70
     1
  9
$DIMSHO
 70
     1
  9
$DIMPOST
  1

  9
$DIMAPOST
  1

  9
$DIMALT
 70
     0
  9
$DIMALTD
 70
     2
  9
$DIMALTF
 40
25.399999999999999
  9
$DIMLFAC
 40
1.0
  9
$DIMTOFL
 70
     0
  9
$DIMTVP
 40
0.0
  9
$DIMTIX
 70
     0
  9
$DIMSOXD
 70
     0
  9
$DIMSAH
 70
     0
  9
$DIMBLK1
  1

  9
$DIMBLK2
  1

  9
$DIMSTYLE
  2
STANDARD
  9
$DIMCLRD
 70
     0
  9
$DIMCLRE
 70
     0
  9
$DIMCLRT
 70
     0
  9
$DIMTFAC
 40
1.0
  9
$DIMGAP
 40
0.09
  9
$LUNITS
 70
     2
  9
$LUPREC
 70
     4
  9
$SKETCHINC
 40
0.1
  9
$FILLETRAD
 40
0.0
  9
$AUNITS
 70
     0
  9
$AUPREC
 70
     0
  9
$MENU
  1
.
  9
$ELEVATION
 40
0.0
  9
$PELEVATION
 40
0.0
  9
$THICKNESS
 40
0.0
  9
$LIMCHECK
 70
     0
  9
$BLIPMODE
 70
     0
  9
$CHAMFERA
 40
0.0
  9
$CHAMFERB
 40
0.0
  9
$SKPOLY
 70
     0
  9
$TDCREATE
 40
2444972.375
  9
$TDUPDATE
 40
2459110.2467248379
  9
$TDINDWG
 40
0.0001546528
  9
$TDUSRTIMER
 40
0.0001546528
  9
$USRTIMER
 70
     1
  9
$ANGBASE
 50
0.0
  9
$ANGDIR
 70
     0
  9
$PDMODE
 70
     0
  9
$PDSIZE
 40
0.0
  9
$PLINEWID
 40
0.0
  9
$COORDS
 70
     1
  9
$SPLFRAME
 70
     0
  9
$SPLINETYPE
 70
     6
  9
$SPLINESEGS
 70
     8
  9
$ATTDIA
 70
     1
  9
$ATTREQ
 70
     1
  9
$HANDLING
 70
     1
  9
$HANDSEED
  5
216
  9
$SURFTAB1
 70
     6
  9
$SURFTAB2
 70
     6
  9
$SURFTYPE
 70
     6
  9
$SURFU
 70
     6
  9
$SURFV
 70
     6
  9
$UCSNAME
  2

  9
$UCSORG
 10
0.0
 20
0.0
 30
0.0
  9
$UCSXDIR
 10
1.0
 20
0.0
 30
0.0
  9
$UCSYDIR
 10
0.0
 20
1.0
 30
0.0
  9
$PUCSNAME
  2

  9
$PUCSORG
 10
0.0
 20
0.0
 30
0.0
  9
$PUCSXDIR
 10
1.0
 20
0.0
 30
0.0
  9
$PUCSYDIR
 10
0.0
 20
1.0
 30
0.0
  9
$USERI1
 70
     0
  9
$USERI2
 70
     0
  9
$USERI3
 70
     0
  9
$USERI4
 70
     0
  9
$USERI5
 70
     0
  9
$USERR1
 40
0.0
  9
$USERR2
 40
0.0
  9
$USERR3
 40
0.0
  9
$USERR4
 40
0.0
  9
$USERR5
 40
0.0
  9
$WORLDVIEW
 70
     1
  9
$SHADEDGE
 70
     3
  9
$SHADEDIF
 70
    70
  9
$TILEMODE
 70
     1
  9
$MAXACTVP
 70
    48
  9
$PLIMCHECK
 70
     0
  9
$PEXTMIN
 10
1.0000000000000000E+020
 20
1.0000000000000000E+020
 30
1.0000000000000000E+020
  9
$PEXTMAX
 10
-1.0000000000000000E+020
 20
-1.0000000000000000E+020
 30
-1.0000000000000000E+020
  9
$PLIMMIN
 10
0.0
 20
0.0
  9
$PLIMMAX
 10
12.0
 20
9.0
  9
$UNITMODE
 70
     0
  9
$VISRETAIN
 70
     1
  9
$PLINEGEN
 70
     0
  9
$PSLTSCALE
 70
     1
  0
ENDSEC
  0
SECTION
  2
TABLES
  0
TABLE
  2
VPORT
 70
     1
  0
VPORT
  2
*ACTIVE
 70
     0
 10
0.0
 20
0.0
 11
1.0
 21
1.0
 12
154.64614572345729
 22
127.4298
 13
0.0
 23
0.0
 14
1.0
 24
1.0
 15
0.0
 25
0.0
 16
0.0
 26
0.0
 36
1.0
 17
0.0
 27
0.0
 37
0.0
 40
204.78382598709459
 41
2.8015873015873001
 42
50.0
 43
0.0
 44
0.0
 50
0.0
 51
0.0
 71
     0
 72
   100
 73
     1
 74
     1
 75
     0
 76
     0
 77
     0
 78
     0
  0
ENDTAB
  0
TABLE
  2
LTYPE
 70
     2
  0
LTYPE
  2
CONTINUOUS
 70
     0
  3
Solid line
 72
    65
 73
     0
 40
0.0
  0
LTYPE
  2
AIGENLINE001
 70
     0
  3
generate AI->DXF Converter
 72
    65
 73
     4
 40
5.8561449999999988
 49
3.5278
 49
-0.776115
 49
0.776115
 49
-0.776115
  0
ENDTAB
  0
TABLE
  2
LAYER
 70
     4
  0
LAYER
  2
0
 70
     0
 62
     7
  6
CONTINUOUS
  0
LAYER
  2
____
 70
     0
 62
     7
  6
CONTINUOUS
  0
LAYER
  2
_________1
 70
     0
 62
     7
  6
CONTINUOUS
  0
LAYER
  2
_________2
 70
     0
 62
     7
  6
CONTINUOUS
  0
ENDTAB
  0
TABLE
  2
STYLE
 70
     1
  0
STYLE
  2
STANDARD
 70
     0
 40
0.0
 41
0.0
 50
0.0
 71
     0
 42
0.0
  3
TXT
  4
EXTFONT.SHX
  0
ENDTAB
  0
TABLE
  2
VIEW
 70
     0
  0
ENDTAB
  0
TABLE
  2
UCS
 70
     0
  0
ENDTAB
  0
TABLE
  2
APPID
 70
     3
  0
APPID
  2
ACAD
 70
     0
  0
APPID
  2
ACAD_NAV_VCDISPLAY
 70
     0
  0
APPID
  2
ACAD_MLEADERVER
 70
     0
  0
ENDTAB
  0
TABLE
  2
DIMSTYLE
 70
     1
  0
DIMSTYLE
  2
STANDARD
 70
     0
  3

  4

  5

  6

  7

 40
1.0
 41
0.18
 42
0.0625
 43
0.38
 44
0.18
 45
0.0
 46
0.0
 47
0.0
 48
0.0
140
0.18
141
0.09
142
0.0
143
25.399999999999999
144
1.0
145
0.0
146
1.0
147
0.09
 71
     0
 72
     0
 73
     1
 74
     1
 75
     0
 76
     0
 77
     0
 78
     0
170
     0
171
     2
172
     0
173
     0
174
     0
175
     0
176
     0
177
     0
178
     0
  0
ENDTAB
  0
ENDSEC
  0
SECTION
  2
BLOCKS
  0
BLOCK
  8
0
  2
$MODEL_SPACE
 70
     0
 10
0.0
 20
0.0
 30
0.0
  3
$MODEL_SPACE
  1

  0
ENDBLK
  5
1A
  8
0
  0
BLOCK
 67
     1
  8
0
  2
$PAPER_SPACE
 70
     0
 10
0.0
 20
0.0
 30
0.0
  3
$PAPER_SPACE
  1

  0
ENDBLK
  5
17
 67
     1
  8
0
  0
BLOCK
  8
_________1
  2
AIGNBL02010002
 70
     0
 10
0.0
 20
0.0
 30
0.0
  3
AIGNBL02010002
  1

  0
LINE
  5
26
  8
_________1
 62
     7
 10
126.03
 20
131.352
 30
0.0
 11
128.24100000000001
 21
131.94399999999999
 31
0.0
  0
LINE
  5
27
  8
_________1
 62
     7
 10
128.24100000000001
 20
131.94399999999999
 30
0.0
 11
126.03
 21
132.53700000000001
 31
0.0
  0
LINE
  5
28
  8
_________1
 62
     7
 10
126.03
 20
132.53700000000001
 30
0.0
 11
126.03
 21
131.352
 31
0.0
  0
LINE
  5
29
  8
_________1
 62
     7
 10
119.95099999999999
 20
132.52199999999999
 30
0.0
 11
117.73999999999999
 21
131.93000000000001
 31
0.0
  0
LINE
  5
2A
  8
_________1
 62
     7
 10
117.73999999999999
 20
131.93000000000001
 30
0.0
 11
119.95099999999999
 21
131.33699999999999
 31
0.0
  0
LINE
  5
2B
  8
_________1
 62
     7
 10
119.95099999999999
 20
131.33699999999999
 30
0.0
 11
119.95099999999999
 21
132.52199999999999
 31
0.0
  0
LINE
  5
2C
  8
_________1
 62
     7
 10
128.24000000000001
 20
131.93700000000001
 30
0.0
 11
117.73999999999999
 21
131.93700000000001
 31
0.0
  0
ENDBLK
  5
2D
  8
_________1
  0
BLOCK
  8
_________1
  2
AIGNBL02010003
 70
     0
 10
0.0
 20
0.0
 30
0.0
  3
AIGNBL02010003
  1

  0
LINE
  5
30
  8
_________1
 62
     7
 10
118.361
 20
125.598
 30
0.0
 11
120.373
 21
124.505
 31
0.0
  0
LINE
  5
31
  8
_________1
 62
     7
 10
120.373
 20
124.505
 30
0.0
 11
119.178
 21
126.458
 31
0.0
  0
LINE
  5
32
  8
_________1
 62
     7
 10
119.178
 20
126.458
 30
0.0
 11
118.361
 21
125.598
 31
0.0
  0
LINE
  5
33
  8
_________1
 62
     7
 10
120.373
 20
124.505
 30
0.0
 11
110.76300000000001
 21
133.63300000000001
 31
0.0
  0
ENDBLK
  5
34
  8
_________1
  0
BLOCK
  8
_________1
  2
AIGNBL02010004
 70
     0
 10
0.0
 20
0.0
 30
0.0
  3
AIGNBL02010004
  1

  0
LINE
  5
37
  8
_________1
 62
     7
 10
138.279
 20
89.831100000000006
 30
0.0
 11
140.49100000000001
 21
90.423599999999993
 31
0.0
  0
LINE
  5
38
  8
_________1
 62
     7
 10
140.49100000000001
 20
90.423599999999993
 30
0.0
 11
138.279
 21
91.016199999999998
 31
0.0
  0
LINE
  5
39
  8
_________1
 62
     7
 10
138.279
 20
91.016199999999998
 30
0.0
 11
138.279
 21
89.831100000000006
 31
0.0
  0
LINE
  5
3A
  8
_________1
 62
     7
 10
144.78
 20
89.831100000000006
 30
0.0
 11
146.99100000000001
 21
90.423599999999993
 31
0.0
  0
LINE
  5
3B
  8
_________1
 62
     7
 10
146.99100000000001
 20
90.423599999999993
 30
0.0
 11
144.78
 21
91.016199999999998
 31
0.0
  0
LINE
  5
3C
  8
_________1
 62
     7
 10
144.78
 20
91.016199999999998
 30
0.0
 11
144.78
 21
89.831100000000006
 31
0.0
  0
LINE
  5
3D
  8
_________1
 62
     7
 10
142.702
 20
91.0017
 30
0.0
 11
140.49100000000001
 21
90.409199999999984
 31
0.0
  0
LINE
  5
3E
  8
_________1
 62
     7
 10
140.49100000000001
 20
90.409199999999984
 30
0.0
 11
142.702
 21
89.816599999999994
 31
0.0
  0
LINE
  5
3F
  8
_________1
 62
     7
 10
142.702
 20
89.816599999999994
 30
0.0
 11
142.702
 21
91.0017
 31
0.0
  0
LINE
  5
40
  8
_________1
 62
     7
 10
106.70099999999999
 20
91.0017
 30
0.0
 11
104.489
 21
90.409199999999984
 31
0.0
  0
LINE
  5
41
  8
_________1
 62
     7
 10
104.489
 20
90.409199999999984
 30
0.0
 11
106.70099999999999
 21
89.816599999999994
 31
0.0
  0
LINE
  5
42
  8
_________1
 62
     7
 10
106.70099999999999
 20
89.816599999999994
 30
0.0
 11
106.70099999999999
 21
91.0017
 31
0.0
  0
LINE
  5
43
  8
_________1
 62
     7
 10
146.99100000000001
 20
90.416399999999996
 30
0.0
 11
104.48999999999999
 21
90.416399999999996
 31
0.0
  0
ENDBLK
  5
44
  8
_________1
  0
BLOCK
  8
_________1
  2
AIGNBL02010005
 70
     0
 10
0.0
 20
0.0
 30
0.0
  3
AIGNBL02010005
  1

  0
LINE
  5
47
  8
_________1
 62
     7
 10
165.98400000000001
 20
124.294
 30
0.0
 11
165.392
 21
126.505
 31
0.0
  0
LINE
  5
48
  8
_________1
 62
     7
 10
165.392
 20
126.505
 30
0.0
 11
164.79900000000001
 21
124.294
 31
0.0
  0
LINE
  5
49
  8
_________1
 62
     7
 10
164.79900000000001
 20
124.294
 30
0.0
 11
165.98400000000001
 21
124.294
 31
0.0
  0
LINE
  5
4A
  8
_________1
 62
     7
 10
164.81399999999999
 20
101.715
 30
0.0
 11
165.40600000000001
 21
99.503900000000002
 31
0.0
  0
LINE
  5
4B
  8
_________1
 62
     7
 10
165.40600000000001
 20
99.503900000000002
 30
0.0
 11
165.999
 21
101.715
 31
0.0
  0
LINE
  5
4C
  8
_________1
 62
     7
 10
165.999
 20
101.715
 30
0.0
 11
164.81399999999999
 21
101.715
 31
0.0
  0
LINE
  5
4D
  8
_________1
 62
     7
 10
165.399
 20
126.505
 30
0.0
 11
165.399
 21
99.504599999999996
 31
0.0
  0
ENDBLK
  5
4E
  8
_________1
  0
BLOCK
  8
_________1
  2
AIGNBL02010006
 70
     0
 10
0.0
 20
0.0
 30
0.0
  3
AIGNBL02010006
  1

  0
LINE
  5
51
  8
_________1
 62
     7
 10
158.84100000000001
 20
116.044
 30
0.0
 11
158.249
 21
118.256
 31
0.0
  0
LINE
  5
52
  8
_________1
 62
     7
 10
158.249
 20
118.256
 30
0.0
 11
157.65600000000001
 21
116.044
 31
0.0
  0
LINE
  5
53
  8
_________1
 62
     7
 10
157.65600000000001
 20
116.044
 30
0.0
 11
158.84100000000001
 21
116.044
 31
0.0
  0
LINE
  5
54
  8
_________1
 62
     7
 10
157.67099999999999
 20
109.965
 30
0.0
 11
158.26300000000001
 21
107.754
 31
0.0
  0
LINE
  5
55
  8
_________1
 62
     7
 10
158.26300000000001
 20
107.754
 30
0.0
 11
158.85599999999999
 21
109.965
 31
0.0
  0
LINE
  5
56
  8
_________1
 62
     7
 10
158.85599999999999
 20
109.965
 30
0.0
 11
157.67099999999999
 21
109.965
 31
0.0
  0
LINE
  5
57
  8
_________1
 62
     7
 10
158.256
 20
118.255
 30
0.0
 11
158.256
 21
107.755
 31
0.0
  0
ENDBLK
  5
58
  8
_________1
  0
BLOCK
  8
_________1
  2
AIGNBL02010007
 70
     0
 10
0.0
 20
0.0
 30
0.0
  3
AIGNBL02010007
  1

  0
LINE
  5
5B
  8
_________1
 62
     7
 10
96.321700000000021
 20
122.294
 30
0.0
 11
95.729100000000003
 21
124.506
 31
0.0
  0
LINE
  5
5C
  8
_________1
 62
     7
 10
95.729100000000003
 20
124.506
 30
0.0
 11
95.136599999999987
 21
122.294
 31
0.0
  0
LINE
  5
5D
  8
_________1
 62
     7
 10
95.136599999999987
 20
122.294
 30
0.0
 11
96.321700000000021
 21
122.294
 31
0.0
  0
LINE
  5
5E
  8
_________1
 62
     7
 10
95.151000000000025
 20
115.215
 30
0.0
 11
95.743600000000001
 21
113.004
 31
0.0
  0
LINE
  5
5F
  8
_________1
 62
     7
 10
95.743600000000001
 20
113.004
 30
0.0
 11
96.336200000000005
 21
115.215
 31
0.0
  0
LINE
  5
60
  8
_________1
 62
     7
 10
96.336200000000005
 20
115.215
 30
0.0
 11
95.151000000000025
 21
115.215
 31
0.0
  0
LINE
  5
61
  8
_________1
 62
     7
 10
95.736400000000003
 20
124.505
 30
0.0
 11
95.736400000000003
 21
113.005
 31
0.0
  0
ENDBLK
  5
62
  8
_________1
  0
BLOCK
  8
_________1
  2
AIGNBL02010008
 70
     0
 10
0.0
 20
0.0
 30
0.0
  3
AIGNBL02010008
  1

  0
LINE
  5
65
  8
_________1
 62
     7
 10
125.2
 20
141.173
 30
0.0
 11
122.989
 21
140.58099999999999
 31
0.0
  0
LINE
  5
66
  8
_________1
 62
     7
 10
122.989
 20
140.58099999999999
 30
0.0
 11
125.2
 21
139.988
 31
0.0
  0
LINE
  5
67
  8
_________1
 62
     7
 10
125.2
 20
139.988
 30
0.0
 11
125.2
 21
141.173
 31
0.0
  0
LINE
  5
68
  8
_________1
 62
     7
 10
138.28
 20
140.00299999999999
 30
0.0
 11
140.49100000000001
 21
140.595
 31
0.0
  0
LINE
  5
69
  8
_________1
 62
     7
 10
140.49100000000001
 20
140.595
 30
0.0
 11
138.28
 21
141.18799999999999
 31
0.0
  0
LINE
  5
6A
  8
_________1
 62
     7
 10
138.28
 20
141.18799999999999
 30
0.0
 11
138.28
 21
140.00299999999999
 31
0.0
  0
LINE
  5
6B
  8
_________1
 62
     7
 10
122.98999999999999
 20
140.58799999999999
 30
0.0
 11
140.49100000000001
 21
140.58799999999999
 31
0.0
  0
ENDBLK
  5
6C
  8
_________1
  0
BLOCK
  8
_________2
  2
AIGNBL03010002
 70
     0
 10
0.0
 20
0.0
 30
0.0
  3
AIGNBL03010002
  1

  0
LINE
  5
6F
  8
_________2
 62
     7
 10
76.741
 20
29.8047
 30
0.0
 11
74.554699999999997
 21
29.8047
 31
0.0
  0
LINE
  5
70
  8
_________2
 62
     7
 10
77.233699999999999
 20
29.8047
 30
0.0
 11
76.981499999999997
 21
29.8047
 31
0.0
  0
LINE
  5
71
  8
_________2
 62
     7
 10
77.726299999999995
 20
29.8047
 30
0.0
 11
80.651200000000003
 21
29.8047
 31
0.0
  0
LINE
  5
72
  8
_________2
 62
     7
 10
77.233699999999999
 20
29.8047
 30
0.0
 11
77.485500000000002
 21
29.8047
 31
0.0
  0
LINE
  5
73
  8
_________2
 62
     7
 10
70.837100000000007
 20
29.8047
 30
0.0
 11
68.650499999999994
 21
29.8047
 31
0.0
  0
LINE
  5
74
  8
_________2
 62
     7
 10
71.329400000000007
 20
29.8047
 30
0.0
 11
71.077600000000004
 21
29.8047
 31
0.0
  0
LINE
  5
75
  8
_________2
 62
     7
 10
71.329400000000007
 20
30.2974
 30
0.0
 11
71.329400000000007
 21
32.484400000000001
 31
0.0
  0
LINE
  5
76
  8
_________2
 62
     7
 10
71.329400000000007
 20
29.8047
 30
0.0
 11
71.329400000000007
 21
30.056899999999999
 31
0.0
  0
LINE
  5
77
  8
_________2
 62
     7
 10
71.822100000000006
 20
29.8047
 30
0.0
 11
74.009
 21
29.8047
 31
0.0
  0
LINE
  5
78
  8
_________2
 62
     7
 10
71.329400000000007
 20
29.8047
 30
0.0
 11
71.581599999999995
 21
29.8047
 31
0.0
  0
LINE
  5
79
  8
_________2
 62
     7
 10
71.329400000000007
 20
29.312799999999999
 30
0.0
 11
71.329400000000007
 21
27.125800000000002
 31
0.0
  0
LINE
  5
7A
  8
_________2
 62
     7
 10
71.329400000000007
 20
29.8047
 30
0.0
 11
71.329400000000007
 21
29.5532
 31
0.0
  0
LINE
  5
7B
  8
_________2
 62
     7
 10
75.040499999999994
 20
28.5852
 30
0.0
 11
80.218500000000006
 21
27.720400000000001
 31
0.0
  0
LINE
  5
7C
  8
_________2
 62
     7
 10
75.040499999999994
 20
31.0243
 30
0.0
 11
80.218500000000006
 21
31.889700000000001
 31
0.0
  0
LINE
  5
7D
  8
_________2
 62
     7
 10
80.218500000000006
 20
27.720400000000001
 30
0.0
 11
80.218500000000006
 21
31.889700000000001
 31
0.0
  0
LINE
  5
7E
  8
_________2
 62
     7
 10
75.040499999999994
 20
28.5852
 30
0.0
 11
75.040499999999994
 21
31.0243
 31
0.0
  0
ARC
  5
7F
  8
_________2
 62
     7
 10
71.28285600000001
 20
29.757811
 30
0.0
 40
1.2673589999999999
 50
2.122214
 51
87.893958999999995
  0
ARC
  5
80
  8
_________2
 62
     7
 10
71.375959999999992
 20
29.758213000000001
 30
0.0
 40
1.2669559999999991
 50
92.104701000000006
 51
177.89526900000001
  0
ARC
  5
81
  8
_________2
 62
     7
 10
71.376357999999996
 20
29.851671
 30
0.0
 40
1.2673680000000001
 50
182.12203600000001
 51
267.877993
  0
ARC
  5
82
  8
_________2
 62
     7
 10
71.282531999999989
 20
29.851998999999999
 30
0.0
 40
1.267695999999999
 50
272.12015300000002
 51
357.863674
  0
ARC
  5
83
  8
_________2
 62
     7
 10
71.329430000000002
 20
29.804742999999998
 30
0.0
 40
2.0849849999999992
 50
0.00001
 51
89.999980000000008
  0
ARC
  5
84
  8
_________2
 62
     7
 10
71.329603000000006
 20
29.804915000000001
 30
0.0
 40
2.084813
 50
90.004733999999999
 51
180.00474399999999
  0
ARC
  5
85
  8
_________2
 62
     7
 10
71.409106000000008
 20
29.884775999999999
 30
0.0
 40
2.1657950000000001
 50
182.11776599999999
 51
267.89173399999999
  0
ARC
  5
86
  8
_________2
 62
     7
 10
71.249459000000002
 20
29.885429999999999
 30
0.0
 40
2.1664590000000001
 50
272.11546800000002
 51
357.86560400000002
  0
ENDBLK
  5
87
  8
_________2
  0
ENDSEC
  0
SECTION
  2
ENTITIES
  0
TEXT
  5
88
  8
____
 62
     7
 10
120.033199
 20
132.97499999999999
 30
0.0
 40
3.0923400000000001
  1
G 1/2
 41
0.5
 72
     1
 11
123.074
 21
132.97499999999999
 31
0.0
  0
TEXT
  5
89
  8
____
 62
     7
 10
130.24452500000001
 20
141.6999999999999
 30
0.0
 40
3.0923400000000001
  1
35
 41
0.5
 72
     1
 11
131.53299999999999
 21
141.6999999999999
 31
0.0
  0
TEXT
  5
8A
  8
____
 62
     7
 10
96.054000000000016
 20
134.333
 30
0.0
 40
3.0923400000000001
  1
ストレーナ付
 41
0.5
  0
TEXT
  5
8B
  8
____
 62
     7
 10
120.607525
 20
91.267399999999995
 30
0.0
 40
3.0923400000000001
  1
72
 41
0.5
 72
     1
 11
121.896
 21
91.267399999999995
 31
0.0
  0
TEXT
  5
8C
  8
____
 62
     7
 10
142.47522000000001
 20
91.337599999999995
 30
0.0
 40
3.0923400000000001
  1
13
 41
0.5
 72
     1
 11
143.506
 21
91.337599999999995
 31
0.0
  0
TEXT
  5
8D
  8
____
 62
     7
 10
164.69900000000001
 20
110.94344
 30
0.0
 40
3.0923400000000001
  1
%%c54
 50
90.0
 41
0.5
 72
     1
 11
164.69900000000001
 21
113.005
 31
0.0
  0
TEXT
  5
8E
  8
____
 62
     7
 10
95.110699999999994
 20
117.360525
 30
0.0
 40
3.0923400000000001
  1
23
 50
90.0
 41
0.5
 72
     1
 11
95.110699999999994
 21
118.649
 31
0.0
  0
TEXT
  5
8F
  8
____
 62
     7
 10
157.33500000000001
 20
109.191114
 30
0.0
 40
3.0923400000000001
  1
PJ 1/2
 50
90.0
 41
0.5
 72
     1
 11
157.33500000000001
 21
113.005
 31
0.0
  0
INSERT
  5
90
  8
_________1
 62
     7
  2
AIGNBL02010002
 10
0.0
 20
0.0
 30
0.0
  0
LINE
  5
91
  8
_________1
 62
     7
 10
128.24000000000001
 20
132.637
 30
0.0
 11
128.24000000000001
 21
125.05500000000001
 31
0.0
  0
LINE
  5
92
  8
_________1
 62
     7
 10
117.73999999999999
 20
132.637
 30
0.0
 11
117.73999999999999
 21
125.05500000000001
 31
0.0
  0
LINE
  5
93
  8
_________1
 62
     7
 10
96.054000000000016
 20
133.63300000000001
 30
0.0
 11
110.76300000000001
 21
133.63300000000001
 31
0.0
  0
INSERT
  5
94
  8
_________1
 62
     7
  2
AIGNBL02010003
 10
0.0
 20
0.0
 30
0.0
  0
INSERT
  5
95
  8
_________1
 62
     7
  2
AIGNBL02010004
 10
0.0
 20
0.0
 30
0.0
  0
INSERT
  5
96
  8
_________1
 62
     7
  2
AIGNBL02010005
 10
0.0
 20
0.0
 30
0.0
  0
LINE
  5
97
  8
_________1
 62
     7
 10
166.09899999999999
 20
126.505
 30
0.0
 11
141.541
 21
126.505
 31
0.0
  0
LINE
  5
98
  8
_________1
 62
     7
 10
166.09899999999999
 20
99.504599999999996
 30
0.0
 11
141.541
 21
99.504599999999996
 31
0.0
  0
INSERT
  5
99
  8
_________1
 62
     7
  2
AIGNBL02010006
 10
0.0
 20
0.0
 30
0.0
  0
LINE
  5
9A
  8
_________1
 62
     7
 10
158.95599999999999
 20
118.255
 30
0.0
 11
148.041
 21
118.255
 31
0.0
  0
LINE
  5
9B
  8
_________1
 62
     7
 10
158.95599999999999
 20
107.755
 30
0.0
 11
148.041
 21
107.755
 31
0.0
  0
LINE
  5
9C
  8
_________1
 62
     7
 10
146.99100000000001
 20
89.716399999999979
 30
0.0
 11
146.99100000000001
 21
106.705
 31
0.0
  0
LINE
  5
9D
  8
_________1
 62
     7
 10
140.49100000000001
 20
89.716399999999979
 30
0.0
 11
140.49100000000001
 21
98.454599999999999
 31
0.0
  0
LINE
  5
9E
  8
_________1
 62
     7
 10
104.48999999999999
 20
89.716399999999979
 30
0.0
 11
104.48999999999999
 21
106.45399999999999
 31
0.0
  0
INSERT
  5
9F
  8
_________1
 62
     7
  2
AIGNBL02010007
 10
0.0
 20
0.0
 30
0.0
  0
LINE
  5
A0
  8
_________1
 62
     7
 10
95.036299999999983
 20
124.505
 30
0.0
 11
117.19
 21
124.505
 31
0.0
  0
LINE
  5
A1
  8
_________1
 62
     7
 10
95.036299999999983
 20
113.005
 30
0.0
 11
101.27
 21
113.005
 31
0.0
  0
INSERT
  5
A2
  8
_________1
 62
     7
  2
AIGNBL02010008
 10
0.0
 20
0.0
 30
0.0
  0
LINE
  5
A3
  8
_________1
 62
     7
 10
140.49100000000001
 20
127.55500000000001
 30
0.0
 11
140.49100000000001
 21
141.28800000000001
 31
0.0
  0
LINE
  5
A4
  8
_________1
 62
     7
 10
122.98999999999999
 20
127.292
 30
0.0
 11
122.98999999999999
 21
130.89400000000001
 31
0.0
  0
LINE
  5
A5
  8
_________1
 62
     7
 10
122.98999999999999
 20
136.67599999999999
 30
0.0
 11
122.98999999999999
 21
141.28800000000001
 31
0.0
  0
LINE
  5
A6
  8
_________1
 62
     7
 10
112.48999999999999
 20
106.255
 30
0.0
 11
114.98999999999999
 21
107.505
 31
0.0
  0
LINE
  5
A7
  8
_________1
 62
     7
 10
105.48999999999999
 20
106.255
 30
0.0
 11
104.48999999999999
 21
107.505
 31
0.0
  0
LINE
  5
A8
  8
_________1
 62
     7
 10
112.48999999999999
 20
106.485
 30
0.0
 11
114.98999999999999
 21
108.10599999999999
 31
0.0
  0
LINE
  5
A9
  8
_________1
 62
     7
 10
104.48999999999999
 20
108.10599999999999
 30
0.0
 11
105.48999999999999
 21
106.485
 31
0.0
  0
LINE
  5
AA
  8
_________1
 62
     7
 10
112.48999999999999
 20
106.255
 30
0.0
 11
105.48999999999999
 21
106.255
 31
0.0
  0
LINE
  5
AB
  8
_________1
 62
     7
 10
112.48999999999999
 20
106.485
 30
0.0
 11
112.48999999999999
 21
106.255
 31
0.0
  0
LINE
  5
AC
  8
_________1
 62
     7
 10
105.48999999999999
 20
106.485
 30
0.0
 11
105.48999999999999
 21
106.255
 31
0.0
  0
LINE
  5
AD
  8
_________1
 62
     7
 10
112.48999999999999
 20
106.485
 30
0.0
 11
105.48999999999999
 21
106.485
 31
0.0
  0
LINE
  5
AE
  8
_________1
 62
     7
 10
104.48999999999999
 20
108.10599999999999
 30
0.0
 11
114.98999999999999
 21
108.10599999999999
 31
0.0
  0
LINE
  5
AF
  8
_________1
 62
     7
 10
104.48999999999999
 20
113.289
 30
0.0
 11
105.48999999999999
 21
114.748
 31
0.0
  0
LINE
  5
B0
  8
_________1
 62
     7
 10
114.98999999999999
 20
113.289
 30
0.0
 11
112.48999999999999
 21
114.749
 31
0.0
  0
LINE
  5
B1
  8
_________1
 62
     7
 10
104.48999999999999
 20
113.289
 30
0.0
 11
114.98999999999999
 21
113.289
 31
0.0
  0
LINE
  5
B2
  8
_________1
 62
     7
 10
114.98999999999999
 20
117.619
 30
0.0
 11
112.48999999999999
 21
117.78
 31
0.0
  0
LINE
  5
B3
  8
_________1
 62
     7
 10
105.48999999999999
 20
117.78
 30
0.0
 11
104.48999999999999
 21
117.619
 31
0.0
  0
LINE
  5
B4
  8
_________1
 62
     7
 10
112.48999999999999
 20
114.749
 30
0.0
 11
105.48999999999999
 21
114.749
 31
0.0
  0
LINE
  5
B5
  8
_________1
 62
     7
 10
114.98999999999999
 20
118.505
 30
0.0
 11
104.48999999999999
 21
118.505
 31
0.0
  0
LINE
  5
B6
  8
_________1
 62
     7
 10
112.48999999999999
 20
117.78
 30
0.0
 11
105.48999999999999
 21
117.78
 31
0.0
  0
LINE
  5
B7
  8
_________1
 62
     7
 10
128.24000000000001
 20
117.255
 30
0.0
 11
128.49000000000001
 21
117.255
 31
0.0
  0
LINE
  5
B8
  8
_________1
 62
     7
 10
127.73999999999999
 20
120.505
 30
0.0
 11
127.73999999999999
 21
117.755
 31
0.0
  0
ARC
  5
B9
  8
_________1
 62
     7
 10
128.24035599999999
 20
117.754797
 30
0.0
 40
0.5002310000000002
 50
179.99996999999999
 51
270.00002000000001
  0
LINE
  5
BA
  8
_________1
 62
     7
 10
118.241
 20
120.505
 30
0.0
 11
118.241
 21
118.255
 31
0.0
  0
LINE
  5
BB
  8
_________1
 62
     7
 10
114.98999999999999
 20
117.255
 30
0.0
 11
117.23999999999999
 21
117.255
 31
0.0
  0
ARC
  5
BC
  8
_________1
 62
     7
 10
117.240269
 20
118.254856
 30
0.0
 40
1.000289999999999
 50
269.99015299999991
 51
359.99012299999998
  0
LINE
  5
BD
  8
_________1
 62
     7
 10
127.73999999999999
 20
120.505
 30
0.0
 11
128.24000000000001
 21
121.005
 31
0.0
  0
LINE
  5
BE
  8
_________1
 62
     7
 10
127.73999999999999
 20
120.505
 30
0.0
 11
127.73999999999999
 21
124.505
 31
0.0
  0
LINE
  5
BF
  8
_________1
 62
     7
 10
128.24000000000001
 20
124.005
 30
0.0
 11
127.73999999999999
 21
124.505
 31
0.0
  0
LINE
  5
C0
  8
_________1
 62
     7
 10
117.73999999999999
 20
121.005
 30
0.0
 11
118.241
 21
120.505
 31
0.0
  0
LINE
  5
C1
  8
_________1
 62
     7
 10
118.241
 20
124.505
 30
0.0
 11
117.73999999999999
 21
124.005
 31
0.0
  0
LINE
  5
C2
  8
_________1
 62
     7
 10
118.241
 20
124.505
 30
0.0
 11
127.73999999999999
 21
124.505
 31
0.0
  0
LINE
  5
C3
  8
_________1
 62
     7
 10
117.73999999999999
 20
124.005
 30
0.0
 11
128.24000000000001
 21
124.005
 31
0.0
  0
LINE
  5
C4
  8
_________1
 62
     7
 10
118.241
 20
120.505
 30
0.0
 11
118.241
 21
124.505
 31
0.0
  0
LINE
  5
C5
  8
_________1
 62
     7
 10
117.73999999999999
 20
121.005
 30
0.0
 11
128.24000000000001
 21
121.005
 31
0.0
  0
LINE
  5
C6
  8
_________1
 62
     7
 10
128.24000000000001
 20
121.005
 30
0.0
 11
128.24000000000001
 21
124.005
 31
0.0
  0
LINE
  5
C7
  8
_________1
 62
     7
 10
117.73999999999999
 20
121.005
 30
0.0
 11
117.73999999999999
 21
124.005
 31
0.0
  0
LINE
  5
C8
  8
_________1
 62
     7
 10
146.49100000000001
 20
107.755
 30
0.0
 11
146.99100000000001
 21
108.255
 31
0.0
  0
LINE
  5
C9
  8
_________1
 62
     7
 10
146.99100000000001
 20
117.755
 30
0.0
 11
146.49100000000001
 21
118.255
 31
0.0
  0
LINE
  5
CA
  8
_________1
 62
     7
 10
146.99100000000001
 20
117.755
 30
0.0
 11
140.49100000000001
 21
117.755
 31
0.0
  0
LINE
  5
CB
  8
_________1
 62
     7
 10
146.49100000000001
 20
118.255
 30
0.0
 11
146.49100000000001
 21
107.755
 31
0.0
  0
LINE
  5
CC
  8
_________1
 62
     7
 10
140.49100000000001
 20
108.255
 30
0.0
 11
146.99100000000001
 21
108.255
 31
0.0
  0
LINE
  5
CD
  8
_________1
 62
     7
 10
140.49100000000001
 20
107.755
 30
0.0
 11
146.49100000000001
 21
107.755
 31
0.0
  0
LINE
  5
CE
  8
_________1
 62
     7
 10
146.49100000000001
 20
118.255
 30
0.0
 11
140.49100000000001
 21
118.255
 31
0.0
  0
LINE
  5
CF
  8
_________1
 62
     7
 10
146.99100000000001
 20
117.755
 30
0.0
 11
146.99100000000001
 21
108.255
 31
0.0
  0
LINE
  5
D0
  8
_________1
  6
AIGENLINE001
 62
     7
 10
149.07499999999999
 20
113.005
 30
0.0
 11
102.31999999999999
 21
113.005
 31
0.0
  0
LINE
  5
D1
  8
_________1
 62
     7
 10
134.49000000000001
 20
107.755
 30
0.0
 11
129.49000000000001
 21
107.755
 31
0.0
  0
LINE
  5
D2
  8
_________1
 62
     7
 10
129.49000000000001
 20
118.255
 30
0.0
 11
134.49000000000001
 21
118.255
 31
0.0
  0
ARC
  5
D3
  8
_________1
 62
     7
 10
128.451842
 20
107.716025
 30
0.0
 40
1.0391209999999991
 50
2.130487
 51
87.869502999999995
  0
LINE
  5
D4
  8
_________1
 62
     7
 10
114.98999999999999
 20
108.754
 30
0.0
 11
128.49000000000001
 21
108.754
 31
0.0
  0
ARC
  5
D5
  8
_________1
 62
     7
 10
128.45181700000001
 20
118.29298
 30
0.0
 40
1.0391330000000001
 50
272.13181600000001
 51
357.88793399999997
  0
LINE
  5
D6
  8
_________1
 62
     7
 10
129.49000000000001
 20
118.255
 30
0.0
 11
129.49000000000001
 21
107.755
 31
0.0
  0
LINE
  5
D7
  8
_________1
 62
     7
 10
137.49000000000001
 20
99.504599999999996
 30
0.0
 11
140.49100000000001
 21
99.504599999999996
 31
0.0
  0
LINE
  5
D8
  8
_________1
 62
     7
 10
137.49000000000001
 20
99.504599999999996
 30
0.0
 11
134.49000000000001
 21
107.755
 31
0.0
  0
LINE
  5
D9
  8
_________1
 62
     7
 10
140.49100000000001
 20
126.505
 30
0.0
 11
137.49000000000001
 21
126.505
 31
0.0
  0
LINE
  5
DA
  8
_________1
 62
     7
 10
134.49000000000001
 20
118.255
 30
0.0
 11
137.49000000000001
 21
126.505
 31
0.0
  0
LINE
  5
DB
  8
_________1
 62
     7
 10
134.49000000000001
 20
118.255
 30
0.0
 11
134.49000000000001
 21
107.755
 31
0.0
  0
LINE
  5
DC
  8
_________1
 62
     7
 10
137.49000000000001
 20
126.505
 30
0.0
 11
137.49000000000001
 21
99.504599999999996
 31
0.0
  0
LINE
  5
DD
  8
_________1
 62
     7
 10
140.49100000000001
 20
126.505
 30
0.0
 11
140.49100000000001
 21
99.504599999999996
 31
0.0
  0
LINE
  5
DE
  8
_________1
  6
AIGENLINE001
 62
     7
 10
122.98999999999999
 20
126.242
 30
0.0
 11
122.98999999999999
 21
113.005
 31
0.0
  0
LINE
  5
DF
  8
_________1
 62
     7
 10
112.48999999999999
 20
117.78
 30
0.0
 11
112.48999999999999
 21
114.749
 31
0.0
  0
LINE
  5
E0
  8
_________1
 62
     7
 10
114.98999999999999
 20
118.505
 30
0.0
 11
114.98999999999999
 21
107.505
 31
0.0
  0
LINE
  5
E1
  8
_________1
 62
     7
 10
105.48999999999999
 20
117.78
 30
0.0
 11
105.48999999999999
 21
114.748
 31
0.0
  0
LINE
  5
E2
  8
_________1
 62
     7
 10
104.48999999999999
 20
118.505
 30
0.0
 11
104.48999999999999
 21
107.505
 31
0.0
  0
LINE
  5
E3
  8
_________1
 62
     7
 10
65.450000000000003
 20
194.18199999999999
 30
0.0
 11
64.949799999999996
 21
194.68199999999999
 31
0.0
  0
LINE
  5
E4
  8
_________1
 62
     7
 10
55.4499
 20
194.68199999999999
 30
0.0
 11
54.950000000000003
 21
194.18199999999999
 31
0.0
  0
LINE
  5
E5
  8
_________1
 62
     7
 10
55.4499
 20
194.68199999999999
 30
0.0
 11
55.4499
 21
188.18199999999999
 31
0.0
  0
LINE
  5
E6
  8
_________1
 62
     7
 10
54.950000000000003
 20
194.18199999999999
 30
0.0
 11
65.450000000000003
 21
194.18199999999999
 31
0.0
  0
LINE
  5
E7
  8
_________1
 62
     7
 10
64.949799999999996
 20
188.18199999999999
 30
0.0
 11
64.949799999999996
 21
194.68199999999999
 31
0.0
  0
LINE
  5
E8
  8
_________1
 62
     7
 10
65.450000000000003
 20
188.18199999999999
 30
0.0
 11
65.450000000000003
 21
194.18199999999999
 31
0.0
  0
LINE
  5
E9
  8
_________1
 62
     7
 10
54.950000000000003
 20
194.18199999999999
 30
0.0
 11
54.950000000000003
 21
188.18199999999999
 31
0.0
  0
LINE
  5
EA
  8
_________1
 62
     7
 10
55.4499
 20
194.68199999999999
 30
0.0
 11
64.949799999999996
 21
194.68199999999999
 31
0.0
  0
LINE
  5
EB
  8
_________1
  6
AIGENLINE001
 62
     7
 10
60.200000000000003
 20
197.63900000000001
 30
0.0
 11
60.200000000000003
 21
148.69499999999999
 31
0.0
  0
LINE
  5
EC
  8
_________1
 62
     7
 10
65.450000000000003
 20
182.18199999999999
 30
0.0
 11
65.450000000000003
 21
177.18199999999999
 31
0.0
  0
LINE
  5
ED
  8
_________1
 62
     7
 10
54.950000000000003
 20
177.18199999999999
 30
0.0
 11
54.950000000000003
 21
182.18199999999999
 31
0.0
  0
ARC
  5
EE
  8
_________1
 62
     7
 10
65.449993000000006
 20
176.18191899999999
 30
0.0
 40
1.0001180000000001
 50
90.0
 51
179.99996999999999
  0
LINE
  5
EF
  8
_________1
 62
     7
 10
64.4499
 20
173.76400000000001
 30
0.0
 11
64.4499
 21
176.18199999999999
 31
0.0
  0
ARC
  5
F0
  8
_________1
 62
     7
 10
54.911378999999997
 20
176.14368999999999
 30
0.0
 40
1.039062999999999
 50
2.1084629999999991
 51
87.871786999999998
  0
LINE
  5
F1
  8
_________1
 62
     7
 10
64.4499
 20
162.68199999999999
 30
0.0
 11
64.4499
 21
167.59999999999999
 31
0.0
  0
LINE
  5
F2
  8
_________1
 62
     7
 10
55.949699999999993
 20
173.76400000000001
 30
0.0
 11
55.949699999999993
 21
176.18199999999999
 31
0.0
  0
LINE
  5
F3
  8
_________1
 62
     7
 10
55.949699999999993
 20
162.68199999999999
 30
0.0
 11
55.949699999999993
 21
167.59999999999999
 31
0.0
  0
LINE
  5
F4
  8
_________1
 62
     7
 10
54.950000000000003
 20
177.18199999999999
 30
0.0
 11
65.450000000000003
 21
177.18199999999999
 31
0.0
  0
LINE
  5
F5
  8
_________1
 62
     7
 10
73.700000000000003
 20
185.18199999999999
 30
0.0
 11
73.700000000000003
 21
188.18199999999999
 31
0.0
  0
LINE
  5
F6
  8
_________1
 62
     7
 10
73.700000000000003
 20
185.18199999999999
 30
0.0
 11
65.450000000000003
 21
182.18199999999999
 31
0.0
  0
LINE
  5
F7
  8
_________1
 62
     7
 10
46.699800000000003
 20
188.18199999999999
 30
0.0
 11
46.699800000000003
 21
185.18199999999999
 31
0.0
  0
LINE
  5
F8
  8
_________1
 62
     7
 10
54.950000000000003
 20
182.18199999999999
 30
0.0
 11
46.699800000000003
 21
185.18199999999999
 31
0.0
  0
LINE
  5
F9
  8
_________1
 62
     7
 10
54.950000000000003
 20
182.18199999999999
 30
0.0
 11
65.450000000000003
 21
182.18199999999999
 31
0.0
  0
LINE
  5
FA
  8
_________1
 62
     7
 10
46.699800000000003
 20
185.18199999999999
 30
0.0
 11
73.700000000000003
 21
185.18199999999999
 31
0.0
  0
LINE
  5
FB
  8
_________1
 62
     7
 10
46.699800000000003
 20
188.18199999999999
 30
0.0
 11
73.700000000000003
 21
188.18199999999999
 31
0.0
  0
LINE
  5
FC
  8
_________1
  6
AIGENLINE001
 62
     7
 10
52.766399999999997
 20
170.68199999999999
 30
0.0
 11
67.487799999999993
 21
170.68199999999999
 31
0.0
  0
ARC
  5
FD
  8
_________1
 62
     7
 10
60.199978000000002
 20
170.68178800000001
 30
0.0
 40
5.2500150000000003
 50
0.00001
 51
89.999980000000008
  0
ARC
  5
FE
  8
_________1
 62
     7
 10
60.199980000000011
 20
170.68178800000001
 30
0.0
 40
5.2500150000000003
 50
90.0
 51
179.99996999999999
  0
ARC
  5
FF
  8
_________1
 62
     7
 10
60.199978000000002
 20
170.68178800000001
 30
0.0
 40
5.250013
 50
179.99996999999999
 51
270.00002000000001
  0
ARC
  5
100
  8
_________1
 62
     7
 10
60.199978000000002
 20
170.68179000000001
 30
0.0
 40
5.2500150000000003
 50
270.00002000000001
 51
359.99999000000003
  0
ARC
  5
101
  8
_________1
 62
     7
 10
60.199806000000002
 20
170.681961
 30
0.0
 40
4.7499560000000001
 50
359.99793199999999
 51
89.997901999999996
  0
ARC
  5
102
  8
_________1
 62
     7
 10
60.199980000000011
 20
170.68178800000001
 30
0.0
 40
4.7501290000000003
 50
90.0
 51
179.99996999999999
  0
ARC
  5
103
  8
_________1
 62
     7
 10
60.199978000000002
 20
170.68178800000001
 30
0.0
 40
4.7501269999999991
 50
179.99996999999999
 51
270.00002000000001
  0
ARC
  5
104
  8
_________1
 62
     7
 10
60.199806000000002
 20
170.68161799999999
 30
0.0
 40
4.7499560000000001
 50
270.00209799999999
 51
0.002068
  0
ARC
  5
105
  8
_________1
 62
     7
 10
60.199806000000002
 20
170.681961
 30
0.0
 40
3.2499519999999991
 50
359.99697300000003
 51
89.996942999999987
  0
ARC
  5
106
  8
_________1
 62
     7
 10
60.199980000000011
 20
170.68178900000001
 30
0.0
 40
3.250124
 50
90.0
 51
179.99996999999999
  0
ARC
  5
107
  8
_________1
 62
     7
 10
60.199978999999999
 20
170.68178900000001
 30
0.0
 40
3.250122999999999
 50
179.99996999999999
 51
270.00002000000001
  0
ARC
  5
108
  8
_________1
 62
     7
 10
60.199806000000002
 20
170.68161699999999
 30
0.0
 40
3.2499519999999991
 50
270.00305700000001
 51
0.003027
  0
LINE
  5
109
  8
_________1
 62
     7
 10
66.7209
 20
160.18199999999999
 30
0.0
 11
65.699799999999996
 21
162.68199999999999
 31
0.0
  0
LINE
  5
10A
  8
_________1
 62
     7
 10
64.970399999999998
 20
160.18199999999999
 30
0.0
 11
63.192399999999999
 21
162.68199999999999
 31
0.0
  0
LINE
  5
10B
  8
_________1
 62
     7
 10
63.192399999999999
 20
152.18199999999999
 30
0.0
 11
63.192399999999999
 21
162.68199999999999
 31
0.0
  0
LINE
  5
10C
  8
_________1
 62
     7
 10
54.699800000000003
 20
162.68199999999999
 30
0.0
 11
53.678699999999992
 21
160.18199999999999
 31
0.0
  0
LINE
  5
10D
  8
_________1
 62
     7
 10
55.429200000000002
 20
160.18199999999999
 30
0.0
 11
57.2072
 21
162.68199999999999
 31
0.0
  0
LINE
  5
10E
  8
_________1
 62
     7
 10
66.7209
 20
160.18199999999999
 30
0.0
 11
64.970399999999998
 21
160.18199999999999
 31
0.0
  0
LINE
  5
10F
  8
_________1
 62
     7
 10
53.678699999999992
 20
160.18199999999999
 30
0.0
 11
55.429200000000002
 21
160.18199999999999
 31
0.0
  0
LINE
  5
110
  8
_________1
 62
     7
 10
66.7209
 20
153.18199999999999
 30
0.0
 11
66.7209
 21
160.18199999999999
 31
0.0
  0
LINE
  5
111
  8
_________1
 62
     7
 10
53.678699999999992
 20
160.18199999999999
 30
0.0
 11
53.678699999999992
 21
153.18199999999999
 31
0.0
  0
LINE
  5
112
  8
_________1
 62
     7
 10
54.699800000000003
 20
162.68199999999999
 30
0.0
 11
65.699799999999996
 21
162.68199999999999
 31
0.0
  0
LINE
  5
113
  8
_________1
 62
     7
 10
64.970399999999998
 20
153.18199999999999
 30
0.0
 11
64.970399999999998
 21
160.18199999999999
 31
0.0
  0
LINE
  5
114
  8
_________1
 62
     7
 10
66.7209
 20
153.18199999999999
 30
0.0
 11
65.699799999999996
 21
152.18199999999999
 31
0.0
  0
LINE
  5
115
  8
_________1
 62
     7
 10
57.2072
 20
152.18199999999999
 30
0.0
 11
57.2072
 21
162.68199999999999
 31
0.0
  0
LINE
  5
116
  8
_________1
 62
     7
 10
54.699800000000003
 20
152.18199999999999
 30
0.0
 11
53.678699999999992
 21
153.18199999999999
 31
0.0
  0
LINE
  5
117
  8
_________1
 62
     7
 10
57.2072
 20
152.18199999999999
 30
0.0
 11
55.429200000000002
 21
153.18199999999999
 31
0.0
  0
LINE
  5
118
  8
_________1
 62
     7
 10
55.429200000000002
 20
160.18199999999999
 30
0.0
 11
55.429200000000002
 21
153.18199999999999
 31
0.0
  0
LINE
  5
119
  8
_________1
 62
     7
 10
64.970399999999998
 20
153.18199999999999
 30
0.0
 11
66.7209
 21
153.18199999999999
 31
0.0
  0
LINE
  5
11A
  8
_________1
 62
     7
 10
53.678699999999992
 20
153.18199999999999
 30
0.0
 11
55.429200000000002
 21
153.18199999999999
 31
0.0
  0
LINE
  5
11B
  8
_________1
 62
     7
 10
54.699800000000003
 20
152.18199999999999
 30
0.0
 11
65.699799999999996
 21
152.18199999999999
 31
0.0
  0
LINE
  5
11C
  8
_________1
 62
     7
 10
63.192399999999999
 20
152.18199999999999
 30
0.0
 11
64.970399999999998
 21
153.18199999999999
 31
0.0
  0
LINE
  5
11D
  8
_________1
  6
AIGENLINE001
 62
     7
 10
60.200000000000003
 20
96.273799999999994
 30
0.0
 11
60.200000000000003
 21
130.53399999999999
 31
0.0
  0
LINE
  5
11E
  8
_________1
  6
AIGENLINE001
 62
     7
 10
42.7425
 20
113.005
 30
0.0
 11
77.996099999999998
 21
113.005
 31
0.0
  0
ARC
  5
11F
  8
_________1
 62
     7
 10
60.199977000000011
 20
113.004667
 30
0.0
 40
13.500038999999999
 50
0.00001
 51
89.999980000000008
  0
ARC
  5
120
  8
_________1
 62
     7
 10
60.199894999999998
 20
113.004581
 30
0.0
 40
13.500125000000001
 50
89.999634
 51
179.999605
  0
ARC
  5
121
  8
_________1
 62
     7
 10
60.199891000000001
 20
113.00475299999999
 30
0.0
 40
13.500120000000001
 50
180.00037499999999
 51
270.00038499999999
  0
ARC
  5
122
  8
_________1
 62
     7
 10
60.199977000000011
 20
113.004672
 30
0.0
 40
13.500038999999999
 50
270.00002000000001
 51
359.99999000000003
  0
LINE
  5
123
  8
_________1
 62
     7
 10
64.950100000000006
 20
120.505
 30
0.0
 11
64.950100000000006
 21
117.77800000000001
 31
0.0
  0
LINE
  5
124
  8
_________1
 62
     7
 10
55.4499
 20
120.505
 30
0.0
 11
55.4499
 21
117.77800000000001
 31
0.0
  0
LINE
  5
125
  8
_________1
 62
     7
 10
64.950100000000006
 20
120.505
 30
0.0
 11
65.450000000000003
 21
121.005
 31
0.0
  0
LINE
  5
126
  8
_________1
 62
     7
 10
64.950100000000006
 20
120.505
 30
0.0
 11
64.950100000000006
 21
124.505
 31
0.0
  0
LINE
  5
127
  8
_________1
 62
     7
 10
65.450000000000003
 20
124.005
 30
0.0
 11
64.950100000000006
 21
124.505
 31
0.0
  0
LINE
  5
128
  8
_________1
 62
     7
 10
54.94959999999999
 20
121.005
 30
0.0
 11
55.4499
 21
120.505
 31
0.0
  0
LINE
  5
129
  8
_________1
 62
     7
 10
55.4499
 20
124.505
 30
0.0
 11
54.94959999999999
 21
124.005
 31
0.0
  0
LINE
  5
12A
  8
_________1
 62
     7
 10
55.4499
 20
124.505
 30
0.0
 11
64.950100000000006
 21
124.505
 31
0.0
  0
LINE
  5
12B
  8
_________1
 62
     7
 10
54.94959999999999
 20
124.005
 30
0.0
 11
65.450000000000003
 21
124.005
 31
0.0
  0
LINE
  5
12C
  8
_________1
 62
     7
 10
55.4499
 20
120.505
 30
0.0
 11
55.4499
 21
124.505
 31
0.0
  0
LINE
  5
12D
  8
_________1
 62
     7
 10
54.94959999999999
 20
121.005
 30
0.0
 11
65.450000000000003
 21
121.005
 31
0.0
  0
LINE
  5
12E
  8
_________1
 62
     7
 10
65.450000000000003
 20
121.005
 30
0.0
 11
65.450000000000003
 21
124.005
 31
0.0
  0
LINE
  5
12F
  8
_________1
 62
     7
 10
54.94959999999999
 20
121.005
 30
0.0
 11
54.94959999999999
 21
124.005
 31
0.0
  0
LINE
  5
130
  8
_________1
 62
     7
 10
54.707099999999997
 20
113.289
 30
0.0
 11
53.679099999999998
 21
114.749
 31
0.0
  0
LINE
  5
131
  8
_________1
 62
     7
 10
57.2072
 20
117.619
 30
0.0
 11
55.429200000000002
 21
117.78
 31
0.0
  0
ARC
  5
132
  8
_________1
 62
     7
 10
60.232993999999991
 20
112.98509199999999
 30
0.0
 40
6.787285999999999
 50
135.053459
 51
164.94340600000001
  0
LINE
  5
133
  8
_________1
 62
     7
 10
63.192399999999999
 20
117.619
 30
0.0
 11
64.970399999999998
 21
117.78
 31
0.0
  0
LINE
  5
134
  8
_________1
 62
     7
 10
65.692499999999995
 20
113.289
 30
0.0
 11
66.7209
 21
114.749
 31
0.0
  0
ARC
  5
135
  8
_________1
 62
     7
 10
60.162191
 20
112.982533
 30
0.0
 40
6.7922279999999988
 50
15.067709000000001
 51
44.939512999999991
  0
LINE
  5
136
  8
_________1
 62
     7
 10
62.699800000000003
 20
108.10599999999999
 30
0.0
 11
61.950099999999992
 21
106.485
 31
0.0
  0
LINE
  5
137
  8
_________1
 62
     7
 10
57.699899999999992
 20
108.10599999999999
 30
0.0
 11
58.4495
 21
106.485
 31
0.0
  0
ARC
  5
138
  8
_________1
 62
     7
 10
60.199806999999993
 20
113.042548
 30
0.0
 40
6.7866589999999993
 50
255.0544100000001
 51
284.94560999999999
  0
ARC
  5
139
  8
_________1
 62
     7
 10
60.199806000000002
 20
113.004841
 30
0.0
 40
5.4999580000000003
 50
359.99821500000002
 51
89.998186000000004
  0
ARC
  5
13A
  8
_________1
 62
     7
 10
60.199980000000011
 20
113.004668
 30
0.0
 40
5.5001309999999988
 50
90.0
 51
179.99996999999999
  0
ARC
  5
13B
  8
_________1
 62
     7
 10
60.199978000000002
 20
113.004668
 30
0.0
 40
5.5001290000000003
 50
179.99996999999999
 51
270.00002000000001
  0
ARC
  5
13C
  8
_________1
 62
     7
 10
60.199806000000002
 20
113.004498
 30
0.0
 40
5.4999580000000003
 50
270.00181400000002
 51
0.001785
  0
LINE
  5
13D
  8
_________2
 62
     7
 10
205.30099999999999
 20
127.411
 30
0.0
 11
183.55000000000001
 21
127.411
 31
0.0
  0
LINE
  5
13E
  8
_________2
 62
     7
 10
100.3
 20
-4.0910799999999998
 30
0.0
 11
100.3
 21
-21.071400000000001
 31
0.0
  0
LINE
  5
13F
  8
_________2
 62
     7
 10
100.3
 20
275.93099999999998
 30
0.0
 11
100.3
 21
258.911
 31
0.0
  0
LINE
  5
140
  8
_________2
 62
     7
 10
17.049499999999998
 20
127.411
 30
0.0
 11
-4.70052
 21
127.411
 31
0.0
  0
INSERT
  5
141
  8
_________2
 62
     7
  2
AIGNBL03010002
 10
0.0
 20
0.0
 30
0.0
  0
TEXT
  5
142
  8
_________2
 62
     7
 10
104.605
 20
1.6794899999999999
 30
0.0
 40
3.0923400000000001
  1
図番
 41
0.5
  0
LINE
  5
143
  8
_________2
 62
     7
 10
103.55
 20
5.9087199999999989
 30
0.0
 11
183.55099999999999
 21
5.9087199999999989
 31
0.0
  0
TEXT
  5
144
  8
_________2
 62
     7
 10
104.605
 20
11.6793
 30
0.0
 40
3.0923400000000001
  1
品番
 41
0.5
  0
TEXT
  5
145
  8
_________2
 62
     7
 10
104.605
 20
31.818100000000001
 30
0.0
 40
3.0923400000000001
  1
名称
 41
0.5
  0
TEXT
  5
146
  8
_________2
 62
     7
 10
91.845058333333341
 20
26.821999999999999
 30
0.0
 40
3.6545800000000002
  1
mm
 41
0.5
 72
     1
 11
93.367800000000003
 21
26.821999999999999
 31
0.0
  0
TEXT
  5
147
  8
_________2
 62
     7
 10
85.643199999999993
 20
31.818100000000001
 30
0.0
 40
3.0923400000000001
  1
単位
 41
0.5
  0
TEXT
  5
148
  8
_________2
 62
     7
 10
85.643199999999993
 20
19.410799999999998
 30
0.0
 40
3.0923400000000001
  1
尺度
 41
0.5
  0
TEXT
  5
149
  8
_________2
 62
     7
 10
90.548758666666686
 20
13.2179
 30
0.0
 40
3.6545800000000002
  1
1 ： 2
 41
0.5
 72
     1
 11
93.959699999999998
 21
13.2179
 31
0.0
  0
TEXT
  5
14A
  8
_________2
 62
     7
 10
136.4985375
 20
9.1078600000000005
 30
0.0
 40
3.9357000000000002
  1
SC05217R
 41
0.5
 72
     1
 11
143.55000000000001
 21
9.1078600000000005
 31
0.0
  0
TEXT
  5
14B
  8
_________2
 62
     7
 10
136.4985375
 20
-0.8926299999999999
 30
0.0
 40
3.9357000000000002
  1
SC05217R
 41
0.5
 72
     1
 11
143.55000000000001
 21
-0.8926299999999999
 31
0.0
  0
TEXT
  5
14C
  8
_________2
 62
     7
 10
109.179
 20
24.2257
 30
0.0
 40
3.9357000000000002
  1
止水栓
 41
0.5
  0
TEXT
  5
14D
  8
_________2
 62
     7
 10
39.364390666666672
 20
13.603
 30
0.0
 40
3.6545800000000002
  1
井伊
 41
0.5
 72
     1
 11
41.313499999999998
 21
13.603
 31
0.0
  0
TEXT
  5
14E
  8
_________2
 62
     7
 10
20.790090666666671
 20
13.603
 30
0.0
 40
3.6545800000000002
  1
木場
 41
0.5
 72
     1
 11
22.7392
 21
13.603
 31
0.0
  0
TEXT
  5
14F
  8
_________2
 62
     7
 10
67.785399999999996
 20
13.2179
 30
0.0
 40
3.6545800000000002
  1
20.08.05
 41
0.5
  0
TEXT
  5
150
  8
_________2
 62
     7
 10
66.593100000000007
 20
19.410799999999998
 30
0.0
 40
3.0923400000000001
  1
日付
 41
0.5
  0
TEXT
  5
151
  8
_________2
 62
     7
 10
29.639399999999998
 20
19.410799999999998
 30
0.0
 40
3.0923400000000001
  1
検図
 41
0.5
  0
TEXT
  5
152
  8
_________2
 62
     7
 10
18.021100000000001
 20
5.21143
 30
0.0
 40
3.0923400000000001
  1
備考
 41
0.5
  0
TEXT
  5
153
  8
_________2
 62
     7
 10
18.021100000000001
 20
19.410799999999998
 30
0.0
 40
3.0923400000000001
  1
製図
 41
0.5
  0
TEXT
  5
154
  8
_________2
 62
     7
 10
23.788465333333338
 20
27.936800000000002
 30
0.0
 40
4.4979399999999989
  1
セラトレーディング株式会社
 41
0.5
 72
     1
 11
41.180500000000002
 21
27.936800000000002
 31
0.0
  0
LINE
  5
155
  8
_________2
 62
     7
 10
183.55099999999999
 20
-4.0910799999999998
 30
0.0
 11
17.049499999999998
 21
-4.0910799999999998
 31
0.0
  0
LINE
  5
156
  8
_________2
 62
     7
 10
17.049499999999998
 20
-4.0910799999999998
 30
0.0
 11
17.049499999999998
 21
258.911
 31
0.0
  0
LINE
  5
157
  8
_________2
 62
     7
 10
17.049499999999998
 20
258.911
 30
0.0
 11
183.55099999999999
 21
258.911
 31
0.0
  0
LINE
  5
158
  8
_________2
 62
     7
 10
183.55099999999999
 20
258.911
 30
0.0
 11
183.55099999999999
 21
-4.0910799999999998
 31
0.0
  0
LINE
  5
159
  8
_________2
 62
     7
 10
65.549599999999998
 20
9.4089600000000004
 30
0.0
 11
65.549599999999998
 21
35.908799999999999
 31
0.0
  0
LINE
  5
15A
  8
_________2
 62
     7
 10
84.549700000000016
 20
9.4089600000000004
 30
0.0
 11
84.549700000000016
 21
35.908799999999999
 31
0.0
  0
LINE
  5
15B
  8
_________2
 62
     7
 10
103.55
 20
-4.0910799999999998
 30
0.0
 11
103.55
 21
35.908799999999999
 31
0.0
  0
LINE
  5
15C
  8
_________2
 62
     7
 10
28.549299999999999
 20
9.4089600000000004
 30
0.0
 11
28.549299999999999
 21
23.409199999999998
 31
0.0
  0
LINE
  5
15D
  8
_________2
 62
     7
 10
17.049499999999998
 20
9.4089600000000004
 30
0.0
 11
103.55
 21
9.4089600000000004
 31
0.0
  0
LINE
  5
15E
  8
_________2
 62
     7
 10
17.049499999999998
 20
23.409199999999998
 30
0.0
 11
103.55
 21
23.409199999999998
 31
0.0
  0
LINE
  5
15F
  8
_________2
 62
     7
 10
103.55
 20
15.9085
 30
0.0
 11
183.55099999999999
 21
15.9085
 31
0.0
  0
LINE
  5
160
  8
_________2
 62
     7
 10
17.049499999999998
 20
35.908799999999999
 30
0.0
 11
183.55099999999999
 21
35.908799999999999
 31
0.0
  0
ENDSEC
  0
EOF
