  0
SECTION
  2
HEADER
  9
$ACADVER
  1
AC1009
  9
$DWGCODEPAGE
  3
dos932
  9
$INSBASE
 10
0.0
 20
0.0
 30
0.0
  9
$EXTMIN
 10
573.2149836410705
 20
-246.9309470739687
 30
0.0
  9
$EXTMAX
 10
849.3241591217079
 20
-61.03924910935329
 30
0.0
  9
$LIMMIN
 10
0.0
 20
0.0
  9
$LIMMAX
 10
12.0
 20
9.0
  9
$ORTHOMODE
 70
     0
  9
$REGENMODE
 70
     1
  9
$FILLMODE
 70
     1
  9
$QTEXTMODE
 70
     0
  9
$MIRRTEXT
 70
     1
  9
$DRAGMODE
 70
     2
  9
$LTSCALE
 40
12.7
  9
$OSMODE
 70
    37
  9
$ATTMODE
 70
     1
  9
$TEXTSIZE
 40
0.2
  9
$TRACEWID
 40
1.0
  9
$TEXTSTYLE
  7
STANDARD
  9
$CLAYER
  8
020
  9
$CELTYPE
  6
BYLAYER
  9
$CECOLOR
 62
   256
  9
$DIMSCALE
 40
1.0
  9
$DIMASZ
 40
0.18
  9
$DIMEXO
 40
0.0625
  9
$DIMDLI
 40
0.38
  9
$DIMRND
 40
0.0
  9
$DIMDLE
 40
0.0
  9
$DIMEXE
 40
0.18
  9
$DIMTP
 40
0.0
  9
$DIMTM
 40
0.0
  9
$DIMTXT
 40
0.18
  9
$DIMCEN
 40
0.09
  9
$DIMTSZ
 40
0.0
  9
$DIMTOL
 70
     0
  9
$DIMLIM
 70
     0
  9
$DIMTIH
 70
     1
  9
$DIMTOH
 70
     1
  9
$DIMSE1
 70
     0
  9
$DIMSE2
 70
     0
  9
$DIMTAD
 70
     0
  9
$DIMZIN
 70
     0
  9
$DIMBLK
  1

  9
$DIMASO
 70
     1
  9
$DIMSHO
 70
     1
  9
$DIMPOST
  1

  9
$DIMAPOST
  1

  9
$DIMALT
 70
     0
  9
$DIMALTD
 70
     2
  9
$DIMALTF
 40
25.4
  9
$DIMLFAC
 40
1.0
  9
$DIMTOFL
 70
     0
  9
$DIMTVP
 40
0.0
  9
$DIMTIX
 70
     0
  9
$DIMSOXD
 70
     0
  9
$DIMSAH
 70
     0
  9
$DIMBLK1
  1

  9
$DIMBLK2
  1

  9
$DIMSTYLE
  2
STANDARD
  9
$DIMCLRD
 70
     0
  9
$DIMCLRE
 70
     0
  9
$DIMCLRT
 70
     0
  9
$DIMTFAC
 40
1.0
  9
$DIMGAP
 40
0.09
  9
$LUNITS
 70
     2
  9
$LUPREC
 70
     1
  9
$SKETCHINC
 40
0.1
  9
$FILLETRAD
 40
0.5
  9
$AUNITS
 70
     0
  9
$AUPREC
 70
     2
  9
$MENU
  1
.
  9
$ELEVATION
 40
0.0
  9
$PELEVATION
 40
0.0
  9
$THICKNESS
 40
0.0
  9
$LIMCHECK
 70
     0
  9
$CHAMFERA
 40
0.0
  9
$CHAMFERB
 40
0.0
  9
$SKPOLY
 70
     0
  9
$TDCREATE
 40
2459812.667692685
  9
$TDUPDATE
 40
2459812.667710903
  9
$TDINDWG
 40
0.0000000116
  9
$TDUSRTIMER
 40
0.0000000116
  9
$USRTIMER
 70
     1
  9
$ANGBASE
 50
0.0
  9
$ANGDIR
 70
     0
  9
$PDMODE
 70
     1
  9
$PDSIZE
 40
-2.0
  9
$PLINEWID
 40
0.0
  9
$COORDS
 70
     1
  9
$SPLFRAME
 70
     0
  9
$SPLINETYPE
 70
     6
  9
$SPLINESEGS
 70
     8
  9
$ATTDIA
 70
     0
  9
$ATTREQ
 70
     1
  9
$HANDLING
 70
     1
  9
$HANDSEED
  5
201
  9
$SURFTAB1
 70
     6
  9
$SURFTAB2
 70
     6
  9
$SURFTYPE
 70
     6
  9
$SURFU
 70
     6
  9
$SURFV
 70
     6
  9
$UCSNAME
  2

  9
$UCSORG
 10
0.0
 20
0.0
 30
0.0
  9
$UCSXDIR
 10
1.0
 20
0.0
 30
0.0
  9
$UCSYDIR
 10
0.0
 20
1.0
 30
0.0
  9
$PUCSNAME
  2

  9
$PUCSORG
 10
0.0
 20
0.0
 30
0.0
  9
$PUCSXDIR
 10
1.0
 20
0.0
 30
0.0
  9
$PUCSYDIR
 10
0.0
 20
1.0
 30
0.0
  9
$USERI1
 70
     0
  9
$USERI2
 70
     0
  9
$USERI3
 70
     0
  9
$USERI4
 70
     0
  9
$USERI5
 70
     0
  9
$USERR1
 40
0.0
  9
$USERR2
 40
0.0
  9
$USERR3
 40
0.0
  9
$USERR4
 40
0.0
  9
$USERR5
 40
0.0
  9
$WORLDVIEW
 70
     1
  9
$SHADEDGE
 70
     3
  9
$SHADEDIF
 70
    70
  9
$TILEMODE
 70
     1
  9
$MAXACTVP
 70
    64
  9
$PLIMCHECK
 70
     0
  9
$PEXTMIN
 10
1.000000000000000E+20
 20
1.000000000000000E+20
 30
1.000000000000000E+20
  9
$PEXTMAX
 10
-1.000000000000000E+20
 20
-1.000000000000000E+20
 30
-1.000000000000000E+20
  9
$PLIMMIN
 10
-20.0
 20
-7.5
  9
$PLIMMAX
 10
277.0
 20
202.5
  9
$UNITMODE
 70
     0
  9
$VISRETAIN
 70
     1
  9
$PLINEGEN
 70
     0
  9
$PSLTSCALE
 70
     1
  0
ENDSEC
  0
SECTION
  2
TABLES
  0
TABLE
  2
VPORT
 70
     1
  0
VPORT
  2
*ACTIVE
 70
     0
 10
0.0
 20
0.0
 11
1.0
 21
1.0
 12
711.2695713813891
 22
-153.985098091661
 13
0.0
 23
0.0
 14
0.5
 24
0.5
 15
0.5
 25
0.5
 16
0.0
 26
0.0
 36
1.0
 17
0.0
 27
0.0
 37
0.0
 40
185.8916979646154
 41
1.485322790118335
 42
2000.0
 43
0.0
 44
0.0
 50
0.0
 51
0.0
 71
     0
 72
   100
 73
     1
 74
     3
 75
     0
 76
     0
 77
     0
 78
     0
  0
ENDTAB
  0
TABLE
  2
LTYPE
 70
   196
  0
LTYPE
  2
CONTINUOUS
 70
     0
  3
Solid line
 72
    65
 73
     0
 40
0.0
  0
LTYPE
  2
AI-LINETYPE-180
 70
     0
  3

 72
    65
 73
     2
 40
2.462962962847222
 49
0.462962962847222
 49
-2.222222309969844
  0
LTYPE
  2
AI-LINETYPE-179
 70
     0
  3

 72
    65
 73
     2
 40
2.462962962847222
 49
0.462962962847222
 49
-2.222222309969844
  0
LTYPE
  2
AI-LINETYPE-178
 70
     0
  3

 72
    65
 73
     2
 40
2.462962962847222
 49
0.462962962847222
 49
-2.222222309969844
  0
LTYPE
  2
AI-LINETYPE-177
 70
     0
  3

 72
    65
 73
     2
 40
2.462962962847222
 49
0.462962962847222
 49
-2.222222309969844
  0
LTYPE
  2
AI-LINETYPE-176
 70
     0
  3

 72
    65
 73
     2
 40
2.462962962847222
 49
0.462962962847222
 49
-2.222222309969844
  0
LTYPE
  2
AI-LINETYPE-175
 70
     0
  3

 72
    65
 73
     2
 40
2.462962962847222
 49
0.462962962847222
 49
-2.222222309969844
  0
LTYPE
  2
AI-LINETYPE-174
 70
     0
  3

 72
    65
 73
     2
 40
2.462962962847222
 49
0.462962962847222
 49
-2.222222309969844
  0
LTYPE
  2
AI-LINETYPE-173
 70
     0
  3

 72
    65
 73
     2
 40
2.462962962847222
 49
0.462962962847222
 49
-2.222222309969844
  0
LTYPE
  2
AI-LINETYPE-172
 70
     0
  3

 72
    65
 73
     2
 40
0.462962962847222
 49
0.462962962847222
 49
-1.851851851388889
  0
LTYPE
  2
AI-LINETYPE-171
 70
     0
  3

 72
    65
 73
     2
 40
2.462962962847222
 49
0.462962962847222
 49
-2.222222309969844
  0
LTYPE
  2
AI-LINETYPE-170
 70
     0
  3

 72
    65
 73
     2
 40
2.462962962847222
 49
0.462962962847222
 49
-2.222222309969844
  0
LTYPE
  2
AI-LINETYPE-169
 70
     0
  3

 72
    65
 73
     2
 40
2.462962962847222
 49
0.462962962847222
 49
-2.222222309969844
  0
LTYPE
  2
AI-LINETYPE-168
 70
     0
  3

 72
    65
 73
     2
 40
2.462962962847222
 49
0.462962962847222
 49
-2.222222309969844
  0
LTYPE
  2
AI-LINETYPE-167
 70
     0
  3

 72
    65
 73
     2
 40
2.462962962847222
 49
0.462962962847222
 49
-2.222222309969844
  0
LTYPE
  2
AI-LINETYPE-166
 70
     0
  3

 72
    65
 73
     2
 40
2.462962962847222
 49
0.462962962847222
 49
-2.222222309969844
  0
LTYPE
  2
AI-LINETYPE-165
 70
     0
  3

 72
    65
 73
     2
 40
2.462962962847222
 49
0.462962962847222
 49
-2.222222309969844
  0
LTYPE
  2
AI-LINETYPE-164
 70
     0
  3

 72
    65
 73
     2
 40
2.462962962847222
 49
0.462962962847222
 49
-2.222222309969844
  0
LTYPE
  2
AI-LINETYPE-163
 70
     0
  3

 72
    65
 73
     2
 40
2.462962962847222
 49
0.462962962847222
 49
-2.222222309969844
  0
LTYPE
  2
AI-LINETYPE-162
 70
     0
  3

 72
    65
 73
     2
 40
2.462962962847222
 49
0.462962962847222
 49
-2.222222309969844
  0
LTYPE
  2
AI-LINETYPE-161
 70
     0
  3

 72
    65
 73
     2
 40
2.462962962847222
 49
0.462962962847222
 49
-2.222222309969844
  0
LTYPE
  2
AI-LINETYPE-160
 70
     0
  3

 72
    65
 73
     2
 40
2.462962962847222
 49
0.462962962847222
 49
-2.222222309969844
  0
LTYPE
  2
AI-LINETYPE-159
 70
     0
  3

 72
    65
 73
     2
 40
2.462962962847222
 49
0.462962962847222
 49
-2.222222309969844
  0
LTYPE
  2
AI-LINETYPE-158
 70
     0
  3

 72
    65
 73
     2
 40
0.462962962847222
 49
0.462962962847222
 49
-1.851851851388889
  0
LTYPE
  2
AI-LINETYPE-157
 70
     0
  3

 72
    65
 73
     2
 40
2.462962962847222
 49
0.462962962847222
 49
-2.222222309969844
  0
LTYPE
  2
AI-LINETYPE-156
 70
     0
  3

 72
    65
 73
     2
 40
2.462962962847222
 49
0.462962962847222
 49
-2.222222309969844
  0
LTYPE
  2
AI-LINETYPE-155
 70
     0
  3

 72
    65
 73
     2
 40
2.462962962847222
 49
0.462962962847222
 49
-2.222222309969844
  0
LTYPE
  2
AI-LINETYPE-154
 70
     0
  3

 72
    65
 73
     2
 40
2.462962962847222
 49
0.462962962847222
 49
-2.222222309969844
  0
LTYPE
  2
AI-LINETYPE-153
 70
     0
  3

 72
    65
 73
     2
 40
2.462962962847222
 49
0.462962962847222
 49
-2.222222309969844
  0
LTYPE
  2
ISO-08_____
 70
     0
  3

 72
    65
 73
     4
 40
0.48
 49
0.48
 49
-0.0600000000000001
 49
0.12
 49
-0.0599999999999999
  0
LTYPE
  2
ISO-10______
 70
     0
  3

 72
    65
 73
     4
 40
0.24
 49
0.24
 49
-0.06
 49
0.01
 49
-0.06
  0
LTYPE
  2
VW-01____
 70
     0
  3

 72
    65
 73
     2
 40
0.083312
 49
0.083312
 49
-0.083312
  0
LTYPE
  2
AI-LINETYPE-152
 70
     0
  3

 72
    65
 73
     2
 40
1.333333385981906
 49
1.333333385981906
 49
-1.333333385981906
  0
LTYPE
  2
AI-LINETYPE-151
 70
     0
  3

 72
    65
 73
     2
 40
1.333333385981906
 49
1.333333385981906
 49
-1.333333385981906
  0
LTYPE
  2
AI-LINETYPE-150
 70
     0
  3

 72
    65
 73
     2
 40
1.333333385981906
 49
1.333333385981906
 49
-1.333333385981906
  0
LTYPE
  2
AI-LINETYPE-149
 70
     0
  3

 72
    65
 73
     2
 40
1.333333385981906
 49
1.333333385981906
 49
-1.333333385981906
  0
LTYPE
  2
AI-LINETYPE-148
 70
     0
  3

 72
    65
 73
     2
 40
1.333333385981906
 49
1.333333385981906
 49
-1.333333385981906
  0
LTYPE
  2
AI-LINETYPE-147
 70
     0
  3

 72
    65
 73
     2
 40
1.333333385981906
 49
1.333333385981906
 49
-1.333333385981906
  0
LTYPE
  2
AI-LINETYPE-146
 70
     0
  3

 72
    65
 73
     2
 40
1.333333385981906
 49
1.333333385981906
 49
-1.333333385981906
  0
LTYPE
  2
AI-LINETYPE-145
 70
     0
  3

 72
    65
 73
     2
 40
1.333333385981906
 49
1.333333385981906
 49
-1.333333385981906
  0
LTYPE
  2
AI-LINETYPE-144
 70
     0
  3

 72
    65
 73
     2
 40
5.333333332500001
 49
3.3333333325
 49
-3.3333333325
  0
LTYPE
  2
AI-LINETYPE-143
 70
     0
  3

 72
    65
 73
     2
 40
5.333333332500001
 49
3.3333333325
 49
-3.3333333325
  0
LTYPE
  2
AI-LINETYPE-142
 70
     0
  3

 72
    65
 73
     2
 40
5.333333332500001
 49
3.3333333325
 49
-3.3333333325
  0
LTYPE
  2
AI-LINETYPE-141
 70
     0
  3

 72
    65
 73
     2
 40
5.333333332500001
 49
3.3333333325
 49
-3.3333333325
  0
LTYPE
  2
AI-LINETYPE-140
 70
     0
  3

 72
    65
 73
     2
 40
5.333333332500001
 49
3.3333333325
 49
-3.3333333325
  0
LTYPE
  2
AI-LINETYPE-139
 70
     0
  3

 72
    65
 73
     2
 40
5.333333332500001
 49
3.3333333325
 49
-3.3333333325
  0
LTYPE
  2
AI-LINETYPE-138
 70
     0
  3

 72
    65
 73
     2
 40
5.333333332500001
 49
3.3333333325
 49
-3.3333333325
  0
LTYPE
  2
AI-LINETYPE-137
 70
     0
  3

 72
    65
 73
     2
 40
5.333333332500001
 49
3.3333333325
 49
-3.3333333325
  0
LTYPE
  2
AI-LINETYPE-136
 70
     0
  3

 72
    65
 73
     2
 40
5.333333332500001
 49
3.3333333325
 49
-3.3333333325
  0
LTYPE
  2
AI-LINETYPE-135
 70
     0
  3

 72
    65
 73
     2
 40
5.333333332500001
 49
3.3333333325
 49
-3.3333333325
  0
LTYPE
  2
AI-LINETYPE-134
 70
     0
  3

 72
    65
 73
     2
 40
5.333333332500001
 49
3.3333333325
 49
-3.3333333325
  0
LTYPE
  2
AI-LINETYPE-133
 70
     0
  3

 72
    65
 73
     2
 40
5.333333332500001
 49
3.3333333325
 49
-3.3333333325
  0
LTYPE
  2
AI-LINETYPE-132
 70
     0
  3

 72
    65
 73
     2
 40
5.333333332500001
 49
3.3333333325
 49
-3.3333333325
  0
LTYPE
  2
AI-LINETYPE-131
 70
     0
  3

 72
    65
 73
     2
 40
5.333333332500001
 49
3.3333333325
 49
-3.3333333325
  0
LTYPE
  2
AI-LINETYPE-130
 70
     0
  3

 72
    65
 73
     2
 40
5.333333332500001
 49
3.3333333325
 49
-3.3333333325
  0
LTYPE
  2
AI-LINETYPE-129
 70
     0
  3

 72
    65
 73
     2
 40
5.333333332500001
 49
3.3333333325
 49
-3.3333333325
  0
LTYPE
  2
AI-LINETYPE-128
 70
     0
  3

 72
    65
 73
     2
 40
5.333333332500001
 49
3.3333333325
 49
-3.3333333325
  0
LTYPE
  2
AI-LINETYPE-127
 70
     0
  3

 72
    65
 73
     2
 40
5.333333332500001
 49
3.3333333325
 49
-3.3333333325
  0
LTYPE
  2
AI-LINETYPE-126
 70
     0
  3

 72
    65
 73
     2
 40
5.333333332500001
 49
3.3333333325
 49
-3.3333333325
  0
LTYPE
  2
AI-LINETYPE-125
 70
     0
  3

 72
    65
 73
     2
 40
5.333333332500001
 49
3.3333333325
 49
-3.3333333325
  0
LTYPE
  2
AI-LINETYPE-124
 70
     0
  3

 72
    65
 73
     2
 40
5.333333332500001
 49
3.3333333325
 49
-3.3333333325
  0
LTYPE
  2
AI-LINETYPE-123
 70
     0
  3

 72
    65
 73
     2
 40
5.333333332500001
 49
3.3333333325
 49
-3.3333333325
  0
LTYPE
  2
AI-LINETYPE-122
 70
     0
  3

 72
    65
 73
     2
 40
5.333333332500001
 49
3.3333333325
 49
-3.3333333325
  0
LTYPE
  2
AI-LINETYPE-121
 70
     0
  3

 72
    65
 73
     2
 40
5.333333332500001
 49
3.3333333325
 49
-3.3333333325
  0
LTYPE
  2
AI-LINETYPE-120
 70
     0
  3

 72
    65
 73
     2
 40
5.333333332500001
 49
3.3333333325
 49
-3.3333333325
  0
LTYPE
  2
AI-LINETYPE-119
 70
     0
  3

 72
    65
 73
     2
 40
5.333333332500001
 49
3.3333333325
 49
-3.3333333325
  0
LTYPE
  2
AI-LINETYPE-118
 70
     0
  3

 72
    65
 73
     2
 40
5.333333332500001
 49
3.3333333325
 49
-3.3333333325
  0
LTYPE
  2
AI-LINETYPE-117
 70
     0
  3

 72
    65
 73
     2
 40
5.333333332500001
 49
3.3333333325
 49
-3.3333333325
  0
LTYPE
  2
AI-LINETYPE-116
 70
     0
  3

 72
    65
 73
     2
 40
5.333333332500001
 49
3.3333333325
 49
-3.3333333325
  0
LTYPE
  2
AI-LINETYPE-115
 70
     0
  3

 72
    65
 73
     2
 40
5.333333332500001
 49
3.3333333325
 49
-3.3333333325
  0
LTYPE
  2
AI-LINETYPE-114
 70
     0
  3

 72
    65
 73
     2
 40
5.333333332500001
 49
3.3333333325
 49
-3.3333333325
  0
LTYPE
  2
AI-LINETYPE-113
 70
     0
  3

 72
    65
 73
     2
 40
5.333333332500001
 49
3.3333333325
 49
-3.3333333325
  0
LTYPE
  2
AI-LINETYPE-112
 70
     0
  3

 72
    65
 73
     2
 40
5.333333332500001
 49
3.3333333325
 49
-3.3333333325
  0
LTYPE
  2
AI-LINETYPE-111
 70
     0
  3

 72
    65
 73
     2
 40
5.333333332500001
 49
3.3333333325
 49
-3.3333333325
  0
LTYPE
  2
AI-LINETYPE-110
 70
     0
  3

 72
    65
 73
     2
 40
5.333333332500001
 49
3.3333333325
 49
-3.3333333325
  0
LTYPE
  2
AI-LINETYPE-109
 70
     0
  3

 72
    65
 73
     2
 40
5.333333332500001
 49
3.3333333325
 49
-3.3333333325
  0
LTYPE
  2
AI-LINETYPE-108
 70
     0
  3

 72
    65
 73
     2
 40
5.333333332500001
 49
3.3333333325
 49
-3.3333333325
  0
LTYPE
  2
AI-LINETYPE-107
 70
     0
  3

 72
    65
 73
     2
 40
5.333333332500001
 49
3.3333333325
 49
-3.3333333325
  0
LTYPE
  2
AI-LINETYPE-106
 70
     0
  3

 72
    65
 73
     2
 40
5.333333332500001
 49
3.3333333325
 49
-3.3333333325
  0
LTYPE
  2
AI-LINETYPE-105
 70
     0
  3

 72
    65
 73
     2
 40
5.333333332500001
 49
3.3333333325
 49
-3.3333333325
  0
LTYPE
  2
AI-LINETYPE-104
 70
     0
  3

 72
    65
 73
     2
 40
5.333333332500001
 49
3.3333333325
 49
-3.3333333325
  0
LTYPE
  2
AI-LINETYPE-103
 70
     0
  3

 72
    65
 73
     2
 40
5.333333332500001
 49
3.3333333325
 49
-3.3333333325
  0
LTYPE
  2
AI-LINETYPE-102
 70
     0
  3

 72
    65
 73
     2
 40
5.333333332500001
 49
3.3333333325
 49
-3.3333333325
  0
LTYPE
  2
AI-LINETYPE-101
 70
     0
  3

 72
    65
 73
     2
 40
5.333333332500001
 49
3.3333333325
 49
-3.3333333325
  0
LTYPE
  2
AI-LINETYPE-100
 70
     0
  3

 72
    65
 73
     2
 40
5.333333332500001
 49
3.3333333325
 49
-3.3333333325
  0
LTYPE
  2
AI-LINETYPE-99
 70
     0
  3

 72
    65
 73
     2
 40
5.333333332500001
 49
3.3333333325
 49
-3.3333333325
  0
LTYPE
  2
AI-LINETYPE-98
 70
     0
  3

 72
    65
 73
     2
 40
5.333333332500001
 49
3.3333333325
 49
-3.3333333325
  0
LTYPE
  2
AI-LINETYPE-97
 70
     0
  3

 72
    65
 73
     2
 40
5.333333332500001
 49
3.3333333325
 49
-3.3333333325
  0
LTYPE
  2
AI-LINETYPE-96
 70
     0
  3

 72
    65
 73
     2
 40
5.333333332500001
 49
3.3333333325
 49
-3.3333333325
  0
LTYPE
  2
AI-LINETYPE-95
 70
     0
  3

 72
    65
 73
     2
 40
5.333333332500001
 49
3.3333333325
 49
-3.3333333325
  0
LTYPE
  2
AI-LINETYPE-94
 70
     0
  3

 72
    65
 73
     2
 40
5.333333332500001
 49
3.3333333325
 49
-3.3333333325
  0
LTYPE
  2
AI-LINETYPE-93
 70
     0
  3

 72
    65
 73
     2
 40
5.333333332500001
 49
3.3333333325
 49
-3.3333333325
  0
LTYPE
  2
AI-LINETYPE-92
 70
     0
  3

 72
    65
 73
     2
 40
5.333333332500001
 49
3.3333333325
 49
-3.3333333325
  0
LTYPE
  2
AI-LINETYPE-91
 70
     0
  3

 72
    65
 73
     2
 40
5.333333332500001
 49
3.3333333325
 49
-3.3333333325
  0
LTYPE
  2
AI-LINETYPE-90
 70
     0
  3

 72
    65
 73
     2
 40
5.333333332500001
 49
3.3333333325
 49
-3.3333333325
  0
LTYPE
  2
AI-LINETYPE-89
 70
     0
  3

 72
    65
 73
     2
 40
5.333333332500001
 49
3.3333333325
 49
-3.3333333325
  0
LTYPE
  2
AI-LINETYPE-88
 70
     0
  3

 72
    65
 73
     2
 40
5.333333332500001
 49
3.3333333325
 49
-3.3333333325
  0
LTYPE
  2
AI-LINETYPE-87
 70
     0
  3

 72
    65
 73
     2
 40
5.333333332500001
 49
3.3333333325
 49
-3.3333333325
  0
LTYPE
  2
AI-LINETYPE-86
 70
     0
  3

 72
    65
 73
     2
 40
5.333333332500001
 49
3.3333333325
 49
-3.3333333325
  0
LTYPE
  2
AI-LINETYPE-85
 70
     0
  3

 72
    65
 73
     2
 40
5.333333332500001
 49
3.3333333325
 49
-3.3333333325
  0
LTYPE
  2
AI-LINETYPE-84
 70
     0
  3

 72
    65
 73
     2
 40
5.333333332500001
 49
3.3333333325
 49
-3.3333333325
  0
LTYPE
  2
AI-LINETYPE-83
 70
     0
  3

 72
    65
 73
     2
 40
5.333333332500001
 49
3.3333333325
 49
-3.3333333325
  0
LTYPE
  2
AI-LINETYPE-82
 70
     0
  3

 72
    65
 73
     2
 40
5.333333332500001
 49
3.3333333325
 49
-3.3333333325
  0
LTYPE
  2
AI-LINETYPE-81
 70
     0
  3

 72
    65
 73
     2
 40
5.333333332500001
 49
3.3333333325
 49
-3.3333333325
  0
LTYPE
  2
AI-LINETYPE-80
 70
     0
  3

 72
    65
 73
     2
 40
5.333333332500001
 49
3.3333333325
 49
-3.3333333325
  0
LTYPE
  2
AI-LINETYPE-79
 70
     0
  3

 72
    65
 73
     2
 40
5.333333332500001
 49
3.3333333325
 49
-3.3333333325
  0
LTYPE
  2
AI-LINETYPE-78
 70
     0
  3

 72
    65
 73
     2
 40
5.333333332500001
 49
3.3333333325
 49
-3.3333333325
  0
LTYPE
  2
AI-LINETYPE-77
 70
     0
  3

 72
    65
 73
     2
 40
5.333333332500001
 49
3.3333333325
 49
-3.3333333325
  0
LTYPE
  2
AI-LINETYPE-76
 70
     0
  3

 72
    65
 73
     2
 40
5.333333332500001
 49
3.3333333325
 49
-3.3333333325
  0
LTYPE
  2
AI-LINETYPE-75
 70
     0
  3

 72
    65
 73
     2
 40
5.333333332500001
 49
3.3333333325
 49
-3.3333333325
  0
LTYPE
  2
AI-LINETYPE-74
 70
     0
  3

 72
    65
 73
     2
 40
5.333333332500001
 49
3.3333333325
 49
-3.3333333325
  0
LTYPE
  2
AI-LINETYPE-73
 70
     0
  3

 72
    65
 73
     2
 40
5.333333332500001
 49
3.3333333325
 49
-3.3333333325
  0
LTYPE
  2
AI-LINETYPE-72
 70
     0
  3

 72
    65
 73
     2
 40
5.333333332500001
 49
3.3333333325
 49
-3.3333333325
  0
LTYPE
  2
AI-LINETYPE-71
 70
     0
  3

 72
    65
 73
     2
 40
5.333333332500001
 49
3.3333333325
 49
-3.3333333325
  0
LTYPE
  2
AI-LINETYPE-70
 70
     0
  3

 72
    65
 73
     2
 40
5.333333332500001
 49
3.3333333325
 49
-3.3333333325
  0
LTYPE
  2
AI-LINETYPE-69
 70
     0
  3

 72
    65
 73
     2
 40
5.333333332500001
 49
3.3333333325
 49
-3.3333333325
  0
LTYPE
  2
AI-LINETYPE-68
 70
     0
  3

 72
    65
 73
     2
 40
5.333333332500001
 49
3.3333333325
 49
-3.3333333325
  0
LTYPE
  2
AI-LINETYPE-67
 70
     0
  3

 72
    65
 73
     2
 40
5.333333332500001
 49
3.3333333325
 49
-3.3333333325
  0
LTYPE
  2
AI-LINETYPE-66
 70
     0
  3

 72
    65
 73
     2
 40
5.333333332500001
 49
3.3333333325
 49
-3.3333333325
  0
LTYPE
  2
AI-LINETYPE-65
 70
     0
  3

 72
    65
 73
     2
 40
5.333333332500001
 49
3.3333333325
 49
-3.3333333325
  0
LTYPE
  2
AI-LINETYPE-64
 70
     0
  3

 72
    65
 73
     2
 40
5.333333332500001
 49
3.3333333325
 49
-3.3333333325
  0
LTYPE
  2
AI-LINETYPE-63
 70
     0
  3

 72
    65
 73
     2
 40
5.333333332500001
 49
3.3333333325
 49
-3.3333333325
  0
LTYPE
  2
AI-LINETYPE-62
 70
     0
  3

 72
    65
 73
     2
 40
5.333333332500001
 49
3.3333333325
 49
-3.3333333325
  0
LTYPE
  2
AI-LINETYPE-61
 70
     0
  3

 72
    65
 73
     2
 40
5.333333332500001
 49
3.3333333325
 49
-3.3333333325
  0
LTYPE
  2
AI-LINETYPE-60
 70
     0
  3

 72
    65
 73
     2
 40
5.333333332500001
 49
3.3333333325
 49
-3.3333333325
  0
LTYPE
  2
AI-LINETYPE-59
 70
     0
  3

 72
    65
 73
     2
 40
5.333333332500001
 49
3.3333333325
 49
-3.3333333325
  0
LTYPE
  2
AI-LINETYPE-58
 70
     0
  3

 72
    65
 73
     2
 40
5.333333332500001
 49
3.3333333325
 49
-3.3333333325
  0
LTYPE
  2
AI-LINETYPE-57
 70
     0
  3

 72
    65
 73
     2
 40
5.333333332500001
 49
3.3333333325
 49
-3.3333333325
  0
LTYPE
  2
AI-LINETYPE-56
 70
     0
  3

 72
    65
 73
     2
 40
5.333333332500001
 49
3.3333333325
 49
-3.3333333325
  0
LTYPE
  2
AI-LINETYPE-55
 70
     0
  3

 72
    65
 73
     2
 40
5.333333332500001
 49
3.3333333325
 49
-3.3333333325
  0
LTYPE
  2
AI-LINETYPE-54
 70
     0
  3

 72
    65
 73
     2
 40
5.333333332500001
 49
3.3333333325
 49
-3.3333333325
  0
LTYPE
  2
AI-LINETYPE-53
 70
     0
  3

 72
    65
 73
     2
 40
5.333333332500001
 49
3.3333333325
 49
-3.3333333325
  0
LTYPE
  2
AI-LINETYPE-52
 70
     0
  3

 72
    65
 73
     2
 40
5.333333332500001
 49
3.3333333325
 49
-3.3333333325
  0
LTYPE
  2
AI-LINETYPE-51
 70
     0
  3

 72
    65
 73
     2
 40
5.333333332500001
 49
3.3333333325
 49
-3.3333333325
  0
LTYPE
  2
AI-LINETYPE-50
 70
     0
  3

 72
    65
 73
     2
 40
5.333333332500001
 49
3.3333333325
 49
-3.3333333325
  0
LTYPE
  2
AI-LINETYPE-49
 70
     0
  3

 72
    65
 73
     2
 40
5.333333332500001
 49
3.3333333325
 49
-3.3333333325
  0
LTYPE
  2
AI-LINETYPE-48
 70
     0
  3

 72
    65
 73
     2
 40
5.333333332500001
 49
3.3333333325
 49
-3.3333333325
  0
LTYPE
  2
AI-LINETYPE-47
 70
     0
  3

 72
    65
 73
     2
 40
5.333333332500001
 49
3.3333333325
 49
-3.3333333325
  0
LTYPE
  2
AI-LINETYPE-46
 70
     0
  3

 72
    65
 73
     2
 40
5.333333332500001
 49
3.3333333325
 49
-3.3333333325
  0
LTYPE
  2
AI-LINETYPE-45
 70
     0
  3

 72
    65
 73
     2
 40
5.333333332500001
 49
3.3333333325
 49
-3.3333333325
  0
LTYPE
  2
AI-LINETYPE-44
 70
     0
  3

 72
    65
 73
     2
 40
5.333333332500001
 49
3.3333333325
 49
-3.3333333325
  0
LTYPE
  2
AI-LINETYPE-43
 70
     0
  3

 72
    65
 73
     2
 40
5.333333332500001
 49
3.3333333325
 49
-3.3333333325
  0
LTYPE
  2
AI-LINETYPE-42
 70
     0
  3

 72
    65
 73
     2
 40
5.333333332500001
 49
3.3333333325
 49
-3.3333333325
  0
LTYPE
  2
AI-LINETYPE-41
 70
     0
  3

 72
    65
 73
     2
 40
5.333333332500001
 49
3.3333333325
 49
-3.3333333325
  0
LTYPE
  2
AI-LINETYPE-40
 70
     0
  3

 72
    65
 73
     2
 40
5.333333332500001
 49
3.3333333325
 49
-3.3333333325
  0
LTYPE
  2
AI-LINETYPE-39
 70
     0
  3

 72
    65
 73
     2
 40
5.333333332500001
 49
3.3333333325
 49
-3.3333333325
  0
LTYPE
  2
AI-LINETYPE-38
 70
     0
  3

 72
    65
 73
     2
 40
5.333333332500001
 49
3.3333333325
 49
-3.3333333325
  0
LTYPE
  2
AI-LINETYPE-37
 70
     0
  3

 72
    65
 73
     2
 40
5.333333332500001
 49
3.3333333325
 49
-3.3333333325
  0
LTYPE
  2
AI-LINETYPE-36
 70
     0
  3

 72
    65
 73
     2
 40
5.333333332500001
 49
3.3333333325
 49
-3.3333333325
  0
LTYPE
  2
AI-LINETYPE-35
 70
     0
  3

 72
    65
 73
     2
 40
5.333333332500001
 49
3.3333333325
 49
-3.3333333325
  0
LTYPE
  2
AI-LINETYPE-34
 70
     0
  3

 72
    65
 73
     2
 40
5.333333332500001
 49
3.3333333325
 49
-3.3333333325
  0
LTYPE
  2
AI-LINETYPE-33
 70
     0
  3

 72
    65
 73
     2
 40
5.333333332500001
 49
3.3333333325
 49
-3.3333333325
  0
LTYPE
  2
AI-LINETYPE-32
 70
     0
  3

 72
    65
 73
     2
 40
5.333333332500001
 49
3.3333333325
 49
-3.3333333325
  0
LTYPE
  2
AI-LINETYPE-31
 70
     0
  3

 72
    65
 73
     2
 40
5.333333332500001
 49
3.3333333325
 49
-3.3333333325
  0
LTYPE
  2
AI-LINETYPE-30
 70
     0
  3

 72
    65
 73
     2
 40
5.333333332500001
 49
3.3333333325
 49
-3.3333333325
  0
LTYPE
  2
AI-LINETYPE-29
 70
     0
  3

 72
    65
 73
     2
 40
5.333333332500001
 49
3.3333333325
 49
-3.3333333325
  0
LTYPE
  2
AI-LINETYPE-28
 70
     0
  3

 72
    65
 73
     2
 40
5.333333332500001
 49
3.3333333325
 49
-3.3333333325
  0
LTYPE
  2
AI-LINETYPE-27
 70
     0
  3

 72
    65
 73
     2
 40
5.333333332500001
 49
3.3333333325
 49
-3.3333333325
  0
LTYPE
  2
AI-LINETYPE-26
 70
     0
  3

 72
    65
 73
     2
 40
5.333333332500001
 49
3.3333333325
 49
-3.3333333325
  0
LTYPE
  2
AI-LINETYPE-25
 70
     0
  3

 72
    65
 73
     2
 40
5.333333332500001
 49
3.3333333325
 49
-3.3333333325
  0
LTYPE
  2
AI-LINETYPE-24
 70
     0
  3

 72
    65
 73
     2
 40
5.333333332500001
 49
3.3333333325
 49
-3.3333333325
  0
LTYPE
  2
AI-LINETYPE-23
 70
     0
  3

 72
    65
 73
     2
 40
5.333333332500001
 49
3.3333333325
 49
-3.3333333325
  0
LTYPE
  2
AI-LINETYPE-22
 70
     0
  3

 72
    65
 73
     2
 40
5.333333332500001
 49
3.3333333325
 49
-3.3333333325
  0
LTYPE
  2
AI-LINETYPE-21
 70
     0
  3

 72
    65
 73
     2
 40
5.333333332500001
 49
3.3333333325
 49
-3.3333333325
  0
LTYPE
  2
AI-LINETYPE-20
 70
     0
  3

 72
    65
 73
     2
 40
5.333333332500001
 49
3.3333333325
 49
-3.3333333325
  0
LTYPE
  2
AI-LINETYPE-19
 70
     0
  3

 72
    65
 73
     2
 40
5.333333332500001
 49
3.3333333325
 49
-3.3333333325
  0
LTYPE
  2
AI-LINETYPE-18
 70
     0
  3

 72
    65
 73
     2
 40
5.333333332500001
 49
3.3333333325
 49
-3.3333333325
  0
LTYPE
  2
AI-LINETYPE-17
 70
     0
  3

 72
    65
 73
     2
 40
5.333333332500001
 49
3.3333333325
 49
-3.3333333325
  0
LTYPE
  2
AI-LINETYPE-16
 70
     0
  3

 72
    65
 73
     2
 40
5.333333332500001
 49
3.3333333325
 49
-3.3333333325
  0
LTYPE
  2
AI-LINETYPE-15
 70
     0
  3

 72
    65
 73
     2
 40
5.333333332500001
 49
3.3333333325
 49
-3.3333333325
  0
LTYPE
  2
AI-LINETYPE-14
 70
     0
  3

 72
    65
 73
     2
 40
5.333333332500001
 49
3.3333333325
 49
-3.3333333325
  0
LTYPE
  2
AI-LINETYPE-13
 70
     0
  3

 72
    65
 73
     2
 40
5.333333332500001
 49
3.3333333325
 49
-3.3333333325
  0
LTYPE
  2
AI-LINETYPE-12
 70
     0
  3

 72
    65
 73
     2
 40
5.333333332500001
 49
3.3333333325
 49
-3.3333333325
  0
LTYPE
  2
AI-LINETYPE-11
 70
     0
  3

 72
    65
 73
     2
 40
5.333333332500001
 49
3.3333333325
 49
-3.3333333325
  0
LTYPE
  2
AI-LINETYPE-10
 70
     0
  3

 72
    65
 73
     2
 40
5.333333332500001
 49
3.3333333325
 49
-3.3333333325
  0
LTYPE
  2
AI-LINETYPE-9
 70
     0
  3

 72
    65
 73
     2
 40
5.333333332500001
 49
3.3333333325
 49
-3.3333333325
  0
LTYPE
  2
AI-LINETYPE-8
 70
     0
  3

 72
    65
 73
     2
 40
5.333333332500001
 49
3.3333333325
 49
-3.3333333325
  0
LTYPE
  2
AI-LINETYPE-7
 70
     0
  3

 72
    65
 73
     2
 40
5.333333332500001
 49
3.3333333325
 49
-3.3333333325
  0
LTYPE
  2
AI-LINETYPE-6
 70
     0
  3

 72
    65
 73
     2
 40
5.333333332500001
 49
3.3333333325
 49
-3.3333333325
  0
LTYPE
  2
AI-LINETYPE-5
 70
     0
  3

 72
    65
 73
     2
 40
5.333333332500001
 49
3.3333333325
 49
-3.3333333325
  0
LTYPE
  2
AI-LINETYPE-4
 70
     0
  3

 72
    65
 73
     2
 40
5.333333332500001
 49
3.3333333325
 49
-3.3333333325
  0
LTYPE
  2
AI-LINETYPE-3
 70
     0
  3

 72
    65
 73
     2
 40
5.333333332500001
 49
3.3333333325
 49
-3.3333333325
  0
LTYPE
  2
AI-LINETYPE-2
 70
     0
  3

 72
    65
 73
     2
 40
5.333333332500001
 49
3.3333333325
 49
-3.3333333325
  0
LTYPE
  2
AI-LINETYPE-1
 70
     0
  3

 72
    65
 73
     2
 40
5.333333332500001
 49
3.3333333325
 49
-3.3333333325
  0
LTYPE
  2
______-12
 70
     0
  3

 72
    65
 73
     2
 40
0.015748031496063
 49
0.015748031496063
 49
-0.031496062992126
  0
LTYPE
  2
______-11
 70
     0
  3

 72
    65
 73
     4
 40
0.1968503937007874
 49
0.1968503937007874
 49
-0.031496062992126
 49
0.015748031496063
 49
-0.031496062992126
  0
LTYPE
  2
______-10
 70
     0
  3

 72
    65
 73
     6
 40
1.5
 49
1.5
 49
-0.1111139999999999
 49
0.2777720000000001
 49
-0.1111139999999999
 49
0.25
 49
-0.125
  0
LTYPE
  2
______-9
 70
     0
  3

 72
    65
 73
     4
 40
1.5
 49
1.5
 49
-0.1111139999999999
 49
0.2777720000000001
 49
-0.1111139999999999
  0
LTYPE
  2
______-8
 70
     0
  3

 72
    65
 73
     6
 40
0.25
 49
0.25
 49
-0.083312
 49
0.027772
 49
-0.055572
 49
0.027772
 49
-0.055572
  0
LTYPE
  2
______-7
 70
     0
  3

 72
    65
 73
     6
 40
0.25
 49
0.25
 49
-0.083312
 49
0.2500000000000001
 49
-0.083344
 49
0.027772
 49
-0.055572
  0
LTYPE
  2
______-6
 70
     0
  3

 72
    65
 73
     4
 40
0.25
 49
0.25
 49
-0.083312
 49
0.027772
 49
-0.055572
  0
LTYPE
  2
______-5
 70
     0
  3

 72
    65
 73
     2
 40
0.02777
 49
0.02777
 49
-0.055542
  0
LTYPE
  2
______-4
 70
     0
  3

 72
    65
 73
     2
 40
0.52777
 49
0.52777
 49
-0.083314
  0
LTYPE
  2
______-3
 70
     0
  3

 72
    65
 73
     2
 40
0.416656
 49
0.416656
 49
-0.083344
  0
LTYPE
  2
______-2
 70
     0
  3

 72
    65
 73
     2
 40
0.194428
 49
0.194428
 49
-0.083342
  0
LTYPE
  2
______-1
 70
     0
  3

 72
    65
 73
     2
 40
0.083312
 49
0.083312
 49
-0.083344
  0
ENDTAB
  0
TABLE
  2
LAYER
 70
    31
  0
LAYER
  2
0
 70
     0
 62
     7
  6
CONTINUOUS
  0
LAYER
  2
__-1
 70
     0
 62
     7
  6
CONTINUOUS
  0
LAYER
  2
020
 70
     0
 62
     1
  6
CONTINUOUS
  0
LAYER
  2
_U_30EC_U_30A4_U_30E4_U_30
 70
     0
 62
     7
  6
CONTINUOUS
  0
LAYER
  2
__-3
 70
     0
 62
     7
  6
CONTINUOUS
  0
ENDTAB
  0
TABLE
  2
STYLE
 70
     4
  0
STYLE
  2
STANDARD
 70
     0
 40
0.0
 41
1.0
 50
0.0
 71
     0
 42
0.2
  3
txt
  4
BIGFONT.SHX
  0
STYLE
  2
YUGOTHIC_MEDIUM
 70
     0
 40
0.0
 41
1.0
 50
0.0
 71
     0
 42
0.2
  3

  4
YuGothic Medium
  0
STYLE
  2
KOZUKA_GOTHIC_PR6N_R
 70
     0
 40
0.0
 41
1.0
 50
0.0
 71
     0
 42
0.2
  3
KozGoPr6N-Regular.otf
  4
Kozuka Gothic Pr6N R
  0
STYLE
  2
YUGOTHIC_BOLD
 70
     0
 40
0.0
 41
1.0
 50
0.0
 71
     0
 42
0.2
  3

  4
YuGothic Bold
  0
ENDTAB
  0
TABLE
  2
VIEW
 70
     0
  0
ENDTAB
  0
TABLE
  2
UCS
 70
     0
  0
ENDTAB
  0
TABLE
  2
APPID
 70
     3
  0
APPID
  2
ACAD
 70
     0
  0
APPID
  2
ACCMTRANSPARENCY
 70
     0
  0
APPID
  2
ACAECLAYERSTANDARD
 70
     0
  0
ENDTAB
  0
TABLE
  2
DIMSTYLE
 70
     1
  0
DIMSTYLE
  2
STANDARD
 70
     0
  3

  4

  5

  6

  7

 40
1.0
 41
0.18
 42
0.0625
 43
0.38
 44
0.18
 45
0.0
 46
0.0
 47
0.0
 48
0.0
140
0.18
141
0.09
142
0.0
143
25.4
144
1.0
145
0.0
146
1.0
147
0.09
 71
     0
 72
     0
 73
     1
 74
     1
 75
     0
 76
     0
 77
     0
 78
     0
170
     0
171
     2
172
     0
173
     0
174
     0
175
     0
176
     0
177
     0
178
     0
  0
ENDTAB
  0
ENDSEC
  0
SECTION
  2
BLOCKS
  0
BLOCK
  8
0
  2
$MODEL_SPACE
 70
     0
 10
0.0
 20
0.0
 30
0.0
  3
$MODEL_SPACE
  1

  0
ENDBLK
  5
21
  8
0
  0
BLOCK
 67
     1
  8
0
  2
$PAPER_SPACE
 70
     0
 10
0.0
 20
0.0
 30
0.0
  3
$PAPER_SPACE
  1

  0
ENDBLK
  5
1D
 67
     1
  8
0
  0
BLOCK
  8
0
  2
____-1
 70
     0
 10
0.0
 20
0.0
 30
0.0
  3
____-1
  1

  0
ENDBLK
  5
71
  8
0
  0
BLOCK
  8
0
  2
____-2-1
 70
     0
 10
0.0
 20
0.0
 30
0.0
  3
____-2-1
  1

  0
LINE
  5
179
  8
__-3
  6
CONTINUOUS
 62
     7
 10
138.0913333333333
 20
-92.33631699029715
 30
0.0
 11
-138.0178421473041
 21
-92.33631699029715
 31
0.0
  0
TEXT
  5
17A
  8
__-3
 62
     3
 10
88.30143351464218
 20
-96.67147750038858
 30
0.0
 40
2.389518229166667
  1
2022.08.20
  7
YUGOTHIC_MEDIUM
 11
88.30143351464218
 21
-95.47671838580524
 31
0.0
 73
     2
  0
TEXT
  5
17B
  8
__-3
 62
     3
 10
123.2516948426721
 20
-96.67147750038858
 30
0.0
 40
2.389518229166667
  1
1:2(A4)
  7
YUGOTHIC_MEDIUM
 11
123.2516948426721
 21
-95.47671838580524
 31
0.0
 73
     2
  0
INSERT
  5
17C
  8
__-3
 62
     7
  2
____-1
 10
0.0
 20
0.0
 30
0.0
  0
TEXT
  5
17D
  8
__-3
 62
     3
 10
110.6217513092308
 20
-95.88946838580533
 30
0.0
 40
2.389518229166667
  1
SCALE:
  7
YUGOTHIC_MEDIUM
 11
110.6217513092308
 21
-93.49995015663866
 31
0.0
 73
     3
  0
TEXT
  5
17E
  8
__-3
 62
     3
 10
-55.47362484078228
 20
-95.88946838580533
 30
0.0
 40
2.389518229166667
  1
NAME:
  7
YUGOTHIC_MEDIUM
 11
-55.47362484078228
 21
-93.49995015663866
 31
0.0
 73
     3
  0
TEXT
  5
17F
  8
__-3
 62
     3
 10
77.64901192790987
 20
-95.88946838580533
 30
0.0
 40
2.389518229166667
  1
DATE:
  7
YUGOTHIC_MEDIUM
 11
77.64901192790987
 21
-93.49995015663866
 31
0.0
 73
     3
  0
TEXT
  5
180
  8
__-3
 62
     3
 10
43.75767111176427
 20
-95.88946838580533
 30
0.0
 40
2.389518229166667
  1
ID:
  7
YUGOTHIC_MEDIUM
 11
43.75767111176427
 21
-93.49995015663866
 31
0.0
 73
     3
  0
TEXT
  5
181
  8
__-3
 62
     3
 10
48.69108390951104
 20
-96.67147750038858
 30
0.0
 40
2.389518229166667
  1
LT-BR016
  7
YUGOTHIC_MEDIUM
 11
48.69108390951104
 21
-95.47671838580524
 31
0.0
 73
     2
  0
TEXT
  5
182
  8
__-3
 62
     3
 10
-43.09234695364448
 20
-96.67147750038858
 30
0.0
 40
2.389518229166667
  1
タイニーブラケット
  7
YUGOTHIC_MEDIUM
 11
-43.09234695364448
 21
-95.47671838580524
 31
0.0
 73
     2
  0
ENDBLK
  5
74
  8
0
  0
BLOCK
  8
0
  2
___
 70
     0
 10
0.0
 20
0.0
 30
0.0
  3
___
  1

  0
LINE
  5
183
  8
__-1
 62
     0
 10
621.1457932071304
 20
-191.3914045439895
 30
0.0
 11
606.9430856454338
 21
-191.3914045439895
 31
0.0
  0
LINE
  5
184
  8
__-1
 62
     0
 10
616.3692872868612
 20
-127.8914045439895
 30
0.0
 11
606.9430856454338
 21
-127.8914045439895
 31
0.0
  0
LINE
  5
185
  8
__-1
 62
     0
 10
606.9430856454338
 20
-191.3914045439895
 30
0.0
 11
606.9430856454338
 21
-127.8914045439895
 31
0.0
  0
CIRCLE
  5
186
  8
__-1
 62
     0
 10
606.9430856454338
 20
-191.3914045439895
 30
0.0
 40
0.2503723144531307
  0
CIRCLE
  5
187
  8
__-1
 62
     0
 10
606.9430856454338
 20
-127.8914045439895
 30
0.0
 40
0.2503723144531307
  0
TEXT
  5
188
  8
__-1
 62
     0
 10
604.9933078684011
 20
-162.0671043502028
 30
0.0
 40
2.179137731481479
  1
127
 50
90.0
  7
YUGOTHIC_BOLD
 11
602.8141701369196
 21
-162.0671043502028
 31
0.0
 73
     3
  0
ENDBLK
  5
79
  8
0
  0
BLOCK
  8
0
  2
___-1
 70
     0
 10
0.0
 20
0.0
 30
0.0
  3
___-1
  1

  0
LINE
  5
189
  8
__-1
 62
     0
 10
734.1695456862059
 20
-127.9147999273315
 30
0.0
 11
742.6164128941873
 21
-127.9147999273315
 31
0.0
  0
LINE
  5
18A
  8
__-1
 62
     0
 10
734.1695456862059
 20
-170.413155644349
 30
0.0
 11
742.6164128941873
 21
-170.413155644349
 31
0.0
  0
LINE
  5
18B
  8
__-1
 62
     0
 10
742.6164128941873
 20
-127.9147999273315
 30
0.0
 11
742.6164128941873
 21
-170.413155644349
 31
0.0
  0
CIRCLE
  5
18C
  8
__-1
 62
     0
 10
742.6164128941873
 20
-127.9147999273315
 30
0.0
 40
0.2503723144531236
  0
CIRCLE
  5
18D
  8
__-1
 62
     0
 10
742.6164128941873
 20
-170.413155644349
 30
0.0
 40
0.2503723144531236
  0
TEXT
  5
18E
  8
__-1
 62
     0
 10
740.6666351171546
 20
-150.7811109899825
 30
0.0
 40
2.179137731481479
  1
85
 50
90.0
  7
YUGOTHIC_BOLD
 11
738.4874973856731
 21
-150.7811109899825
 31
0.0
 73
     3
  0
ENDBLK
  5
7C
  8
0
  0
BLOCK
  8
0
  2
___-2
 70
     0
 10
0.0
 20
0.0
 30
0.0
  3
___-2
  1

  0
LINE
  5
18F
  8
__-1
 62
     0
 10
731.1695456862059
 20
-124.9147999273315
 30
0.0
 11
731.1695456862059
 21
-118.7500208147706
 31
0.0
  0
LINE
  5
190
  8
__-1
 62
     0
 10
728.1695456862059
 20
-124.9147999273315
 30
0.0
 11
728.1695456862059
 21
-118.7500208147706
 31
0.0
  0
LINE
  5
191
  8
__-1
 62
     0
 10
731.1695456862059
 20
-118.7500208147706
 30
0.0
 11
728.1695456862059
 21
-118.7500208147706
 31
0.0
  0
CIRCLE
  5
192
  8
__-1
 62
     0
 10
731.1695456862059
 20
-118.7500208147706
 30
0.0
 40
0.2503723144531236
  0
CIRCLE
  5
193
  8
__-1
 62
     0
 10
728.1695456862059
 20
-118.7500208147706
 30
0.0
 40
0.2503723144531236
  0
TEXT
  5
194
  8
__-1
 62
     0
 10
728.8609790841348
 20
-116.8002430377379
 30
0.0
 40
2.179137731481479
  1
6
  7
YUGOTHIC_BOLD
 11
728.8609790841348
 21
-114.6211053062564
 31
0.0
 73
     3
  0
ENDBLK
  5
7F
  8
0
  0
BLOCK
  8
0
  2
___-3
 70
     0
 10
0.0
 20
0.0
 30
0.0
  3
___-3
  1

  0
LINE
  5
195
  8
__-1
 62
     0
 10
728.1695456862059
 20
-127.9147999273315
 30
0.0
 11
728.1695456862059
 21
-118.7500208147706
 31
0.0
  0
LINE
  5
196
  8
__-1
 62
     0
 10
668.1695456862059
 20
-127.9147999273315
 30
0.0
 11
668.1695456862059
 21
-118.7500208147706
 31
0.0
  0
LINE
  5
197
  8
__-1
 62
     0
 10
728.1695456862059
 20
-118.7500208147706
 30
0.0
 11
668.1695456862059
 21
-118.7500208147706
 31
0.0
  0
CIRCLE
  5
198
  8
__-1
 62
     0
 10
728.1695456862059
 20
-118.7500208147706
 30
0.0
 40
0.2503723144531236
  0
CIRCLE
  5
199
  8
__-1
 62
     0
 10
668.1695456862059
 20
-118.7500208147706
 30
0.0
 40
0.2503723144531236
  0
TEXT
  5
19A
  8
__-1
 62
     0
 10
695.7438458799925
 20
-116.8002430377379
 30
0.0
 40
2.179137731481479
  1
120
  7
YUGOTHIC_BOLD
 11
695.7438458799925
 21
-114.6211053062564
 31
0.0
 73
     3
  0
ENDBLK
  5
82
  8
0
  0
BLOCK
  8
0
  2
___-4
 70
     0
 10
0.0
 20
0.0
 30
0.0
  3
___-4
  1

  0
LINE
  5
19B
  8
__-1
 62
     0
 10
731.1695456862059
 20
-124.9147999273315
 30
0.0
 11
731.1695456862059
 21
-108.7500208147706
 31
0.0
  0
LINE
  5
19C
  8
__-1
 62
     0
 10
624.1457932071304
 20
-124.9147999273315
 30
0.0
 11
624.1457932071304
 21
-108.7500208147706
 31
0.0
  0
LINE
  5
19D
  8
__-1
 62
     0
 10
731.1695456862059
 20
-108.7500208147706
 30
0.0
 11
624.1457932071304
 21
-108.7500208147706
 31
0.0
  0
CIRCLE
  5
19E
  8
__-1
 62
     0
 10
731.1695456862059
 20
-108.7500208147706
 30
0.0
 40
0.2503723144531236
  0
CIRCLE
  5
19F
  8
__-1
 62
     0
 10
624.1457932071304
 20
-108.7500208147706
 30
0.0
 40
0.2503723144531307
  0
TEXT
  5
1A0
  8
__-1
 62
     0
 10
675.2319696404547
 20
-106.8002430377379
 30
0.0
 40
2.179137731481479
  1
214
  7
YUGOTHIC_BOLD
 11
675.2319696404547
 21
-104.6211053062564
 31
0.0
 73
     3
  0
ENDBLK
  5
85
  8
0
  0
BLOCK
  8
0
  2
___-5
 70
     0
 10
0.0
 20
0.0
 30
0.0
  3
___-5
  1

  0
LINE
  5
1A1
  8
__-1
 62
     0
 10
654.2025566399018
 20
-161.3914045439768
 30
0.0
 11
653.6164128941873
 21
-161.3914045439768
 31
0.0
  0
LINE
  5
1A2
  8
__-1
 62
     0
 10
658.1164128941873
 20
-191.3914045439895
 30
0.0
 11
653.6164128941873
 21
-191.3914045439895
 31
0.0
  0
LINE
  5
1A3
  8
__-1
 62
     0
 10
653.6164128941873
 20
-161.3914045439768
 30
0.0
 11
653.6164128941873
 21
-191.3914045439895
 31
0.0
  0
CIRCLE
  5
1A4
  8
__-1
 62
     0
 10
653.6164128941873
 20
-161.3914045439768
 30
0.0
 40
0.2503723144531236
  0
CIRCLE
  5
1A5
  8
__-1
 62
     0
 10
653.6164128941873
 20
-191.3914045439895
 30
0.0
 40
0.2503723144531236
  0
TEXT
  5
1A6
  8
__-1
 62
     0
 10
651.6666351171546
 20
-178.0085377481254
 30
0.0
 40
2.179137731481479
  1
60
 50
90.0
  7
YUGOTHIC_BOLD
 11
649.4874973856731
 21
-178.0085377481254
 31
0.0
 73
     3
  0
ENDBLK
  5
88
  8
0
  0
BLOCK
  8
0
  2
___-6
 70
     0
 10
0.0
 20
0.0
 30
0.0
  3
___-6
  1

  0
LINE
  5
1A7
  8
__-1
 62
     0
 10
624.1457932071304
 20
-194.3914045439895
 30
0.0
 11
624.1457932071304
 21
-201.7500208147706
 31
0.0
  0
LINE
  5
1A8
  8
__-1
 62
     0
 10
690.1457932071304
 20
-194.3914045439895
 30
0.0
 11
690.1457932071304
 21
-201.7500208147706
 31
0.0
  0
LINE
  5
1A9
  8
__-1
 62
     0
 10
624.1457932071304
 20
-201.7500208147706
 30
0.0
 11
690.1457932071304
 21
-201.7500208147706
 31
0.0
  0
CIRCLE
  5
1AA
  8
__-1
 62
     0
 10
624.1457932071304
 20
-201.7500208147706
 30
0.0
 40
0.2503723144531307
  0
CIRCLE
  5
1AB
  8
__-1
 62
     0
 10
690.1457932071304
 20
-201.7500208147706
 30
0.0
 40
0.2503723144531236
  0
TEXT
  5
1AC
  8
__-1
 62
     0
 10
654.720093400917
 20
-199.8002430377379
 30
0.0
 40
2.179137731481479
  1
132
  7
YUGOTHIC_BOLD
 11
654.720093400917
 21
-197.6211053062564
 31
0.0
 73
     3
  0
ENDBLK
  5
8B
  8
0
  0
BLOCK
  8
0
  2
CALLOUT
 70
     0
 10
0.0
 20
0.0
 30
0.0
  3
CALLOUT
  1

  0
LINE
  5
1AD
  8
020
  6
CONTINUOUS
 62
     2
 10
0.0
 20
0.0
 30
0.0
 11
5.0
 21
-27.09041676249954
 31
0.0
  0
LINE
  5
1AE
  8
020
  6
CONTINUOUS
 62
     2
 10
-6.349999999999994
 20
0.0
 30
0.0
 11
0.0
 21
0.0
 31
0.0
  0
TEXT
  5
1AF
  8
020
 62
     2
 10
-30.62577777777777
 20
-0.7337777777777772
 30
0.0
 40
4.358275462962959
  1
ソケット
  7
YUGOTHIC_BOLD
 11
-30.62577777777777
 21
3.624497685185181
 31
0.0
 73
     3
  0
ENDBLK
  5
8E
  8
0
  0
BLOCK
  8
0
  2
___-7
 70
     0
 10
0.0
 20
0.0
 30
0.0
  3
___-7
  1

  0
LINE
  5
1B0
  8
__-1
 62
     0
 10
783.3470019796243
 20
-146.1639777852332
 30
0.0
 11
783.3470019796243
 21
-118.7500208147706
 31
0.0
  0
LINE
  5
1B1
  8
__-1
 62
     0
 10
816.6970019796244
 20
-146.1639777852332
 30
0.0
 11
816.6970019796244
 21
-118.7500208147706
 31
0.0
  0
LINE
  5
1B2
  8
__-1
 62
     0
 10
783.3470019796243
 20
-118.7500208147706
 30
0.0
 11
816.6970019796244
 21
-118.7500208147706
 31
0.0
  0
CIRCLE
  5
1B3
  8
__-1
 62
     0
 10
783.3470019796243
 20
-118.7500208147706
 30
0.0
 40
0.2503723144531307
  0
CIRCLE
  5
1B4
  8
__-1
 62
     0
 10
816.6970019796244
 20
-118.7500208147706
 30
0.0
 40
0.2503723144531307
  0
TEXT
  5
1B5
  8
__-1
 62
     0
 10
797.2026019432893
 20
-116.8002430377379
 30
0.0
 40
2.179137731481479
  1
66.7
  7
YUGOTHIC_BOLD
 11
797.2026019432893
 21
-114.6211053062564
 31
0.0
 73
     3
  0
ENDBLK
  5
91
  8
0
  0
BLOCK
  8
0
  2
___-8
 70
     0
 10
0.0
 20
0.0
 30
0.0
  3
___-8
  1

  0
LINE
  5
1B6
  8
__-1
 62
     0
 10
778.7720019796243
 20
-146.1639777852332
 30
0.0
 11
778.7720019796243
 21
-108.7500208147706
 31
0.0
  0
LINE
  5
1B7
  8
__-1
 62
     0
 10
821.2720019796243
 20
-146.1639777852332
 30
0.0
 11
821.2720019796243
 21
-108.7500208147706
 31
0.0
  0
LINE
  5
1B8
  8
__-1
 62
     0
 10
778.7720019796243
 20
-108.7500208147706
 30
0.0
 11
821.2720019796243
 21
-108.7500208147706
 31
0.0
  0
CIRCLE
  5
1B9
  8
__-1
 62
     0
 10
778.7720019796243
 20
-108.7500208147706
 30
0.0
 40
0.2503723144531307
  0
CIRCLE
  5
1BA
  8
__-1
 62
     0
 10
821.2720019796243
 20
-108.7500208147706
 30
0.0
 40
0.2503723144531307
  0
TEXT
  5
1BB
  8
__-1
 62
     0
 10
798.4048687754821
 20
-106.8002430377379
 30
0.0
 40
2.179137731481479
  1
85
  7
YUGOTHIC_BOLD
 11
798.4048687754821
 21
-104.6211053062564
 31
0.0
 73
     3
  0
ENDBLK
  5
94
  8
0
  0
ENDSEC
  0
SECTION
  2
ENTITIES
  0
INSERT
  5
1BC
  8
__-3
 62
     7
  2
____-2-1
 10
711.2328257883746
 20
-148.5000416295412
 30
0.0
  0
LINE
  5
1BD
  8
_U_30EC_U_30A4_U_30E4_U_30
  6
ISO-08_____
 62
     2
 10
800.0220019796243
 20
-172.9139777852333
 30
0.0
 11
800.0220019796243
 21
-125.4139777852333
 31
0.0
  0
POLYLINE
  5
1BE
  8
_U_30EC_U_30A4_U_30E4_U_30
 62
     1
 66
     1
 10
0.0
 20
0.0
 30
0.0
 70
   128
  0
VERTEX
  5
1BF
  8
_U_30EC_U_30A4_U_30E4_U_30
 62
     1
 10
731.1695456862059
 20
-127.9147999273315
 30
0.0
  0
VERTEX
  5
1C0
  8
_U_30EC_U_30A4_U_30E4_U_30
 62
     1
 10
728.1695456862059
 20
-127.9147999273315
 30
0.0
  0
VERTEX
  5
1C1
  8
_U_30EC_U_30A4_U_30E4_U_30
 62
     1
 10
728.1695456862059
 20
-170.413155644349
 30
0.0
  0
VERTEX
  5
1C2
  8
_U_30EC_U_30A4_U_30E4_U_30
 62
     1
 10
731.1695456862059
 20
-170.413155644349
 30
0.0
  0
VERTEX
  5
1C3
  8
_U_30EC_U_30A4_U_30E4_U_30
 62
     1
 10
731.1695456862059
 20
-127.9147999273315
 30
0.0
  0
SEQEND
  5
1C4
  8
_U_30EC_U_30A4_U_30E4_U_30
 62
     1
  0
POLYLINE
  5
1C5
  8
_U_30EC_U_30A4_U_30E4_U_30
 62
     1
 66
     1
 10
0.0
 20
0.0
 30
0.0
 70
   128
  0
VERTEX
  5
1C6
  8
_U_30EC_U_30A4_U_30E4_U_30
 62
     1
 10
728.1695456862059
 20
-146.2213490377748
 30
0.0
  0
VERTEX
  5
1C7
  8
_U_30EC_U_30A4_U_30E4_U_30
 62
     1
 10
668.1695456862059
 20
-146.2213490377748
 30
0.0
  0
VERTEX
  5
1C8
  8
_U_30EC_U_30A4_U_30E4_U_30
 62
     1
 10
668.9419314050239
 20
-152.1066065339057
 30
0.0
  0
VERTEX
  5
1C9
  8
_U_30EC_U_30A4_U_30E4_U_30
 62
     1
 10
728.1695456862059
 20
-152.1066065339057
 30
0.0
  0
VERTEX
  5
1CA
  8
_U_30EC_U_30A4_U_30E4_U_30
 62
     1
 10
728.1695456862059
 20
-146.2213490377748
 30
0.0
  0
SEQEND
  5
1CB
  8
_U_30EC_U_30A4_U_30E4_U_30
 62
     1
  0
TEXT
  5
1CC
  8
_U_30EC_U_30A4_U_30E4_U_30
 62
     1
 10
755.9776407550515
 20
-63.25460955908874
 30
0.0
 40
2.124016203703704
  1
＊表示サイズは製品により実物と誤差が生じる場合があります
  7
YUGOTHIC_MEDIUM
 11
755.9776407550515
 21
-63.86147133157552
 31
0.0
 73
     1
  0
TEXT
  5
1CD
  8
_U_30EC_U_30A4_U_30E4_U_30
 62
     1
 10
778.4278934392686
 20
-175.9127246020269
 30
0.0
 40
2.124016203703704
  1
（ビス穴の中心から中心のサイズ）
  7
YUGOTHIC_MEDIUM
 11
778.4278934392686
 21
-176.5195863745137
 31
0.0
 73
     1
  0
TEXT
  5
1CE
  8
_U_30EC_U_30A4_U_30E4_U_30
 62
     1
 10
816.2944141940096
 20
-148.8374707681198
 30
0.0
 40
0.3669134813623261
  1
+
  7
KOZUKA_GOTHIC_PR6N_R
 11
816.2944141940096
 21
-148.895252418728
 31
0.0
 73
     1
  0
TEXT
  5
1CF
  8
_U_30EC_U_30A4_U_30E4_U_30
 62
     1
 10
782.5244317953507
 20
-148.8381581698011
 30
0.0
 40
0.3669134813623261
  1
+
  7
KOZUKA_GOTHIC_PR6N_R
 11
782.5244317953507
 21
-148.8959398204093
 31
0.0
 73
     1
  0
LINE
  5
1D0
  8
_U_30EC_U_30A4_U_30E4_U_30
  6
ISO-08_____
 62
     2
 10
728.1695456862059
 20
-127.9147999273315
 30
0.0
 11
619.3692872868612
 21
-127.9147999273315
 31
0.0
  0
POLYLINE
  5
1D1
  8
_U_30EC_U_30A4_U_30E4_U_30
  6
VW-01____
 62
     4
 66
     1
 10
0.0
 20
0.0
 30
0.0
 70
   128
  0
VERTEX
  5
1D2
  8
_U_30EC_U_30A4_U_30E4_U_30
  6
VW-01____
 62
     4
 10
662.4127910217799
 20
-161.3914045439768
 30
0.0
  0
VERTEX
  5
1D3
  8
_U_30EC_U_30A4_U_30E4_U_30
  6
VW-01____
 62
     4
 10
651.9923222580236
 20
-161.3914045439768
 30
0.0
  0
VERTEX
  5
1D4
  8
_U_30EC_U_30A4_U_30E4_U_30
  6
VW-01____
 62
     4
 10
651.9923222580236
 20
-136.5901693681268
 30
0.0
  0
VERTEX
  5
1D5
  8
_U_30EC_U_30A4_U_30E4_U_30
  6
VW-01____
 62
     4
 10
662.4127910217799
 20
-136.5901693681268
 30
0.0
  0
VERTEX
  5
1D6
  8
_U_30EC_U_30A4_U_30E4_U_30
  6
VW-01____
 62
     4
 10
662.4127910217799
 20
-161.3914045439768
 30
0.0
  0
SEQEND
  5
1D7
  8
_U_30EC_U_30A4_U_30E4_U_30
  6
VW-01____
 62
     4
  0
INSERT
  5
1D8
  8
__-1
 62
     2
  2
___
 10
0.0
 20
0.0
 30
0.0
  0
LINE
  5
1D9
  8
020
  6
CONTINUOUS
 62
     1
 10
683.6164128941873
 20
-191.4147999273315
 30
0.0
 11
839.6164128941873
 21
-191.4147999273315
 31
0.0
  0
LINE
  5
1DA
  8
_U_30EC_U_30A4_U_30E4_U_30
  6
ISO-08_____
 62
     2
 10
624.1457932071304
 20
-125.7500208147706
 30
0.0
 11
624.1457932071304
 21
-191.3914045439895
 31
0.0
  0
INSERT
  5
1DB
  8
__-1
 62
     2
  2
___-1
 10
0.0
 20
0.0
 30
0.0
  0
INSERT
  5
1DC
  8
__-1
 62
     2
  2
___-2
 10
0.0
 20
0.0
 30
0.0
  0
INSERT
  5
1DD
  8
__-1
 62
     2
  2
___-3
 10
0.0
 20
0.0
 30
0.0
  0
INSERT
  5
1DE
  8
__-1
 62
     2
  2
___-4
 10
0.0
 20
0.0
 30
0.0
  0
POLYLINE
  5
1DF
  8
020
  6
CONTINUOUS
 62
     1
 66
     1
 10
0.0
 20
0.0
 30
0.0
 70
   129
  0
VERTEX
  5
1E0
  8
020
  6
CONTINUOUS
 62
     1
 10
669.8794385876371
 20
-159.2500208147833
 30
0.0
  0
VERTEX
  5
1E1
  8
020
  6
CONTINUOUS
 62
     1
 10
644.5256746921665
 20
-159.2500208147833
 30
0.0
  0
VERTEX
  5
1E2
  8
020
  6
CONTINUOUS
 62
     1
 10
647.525657066958
 20
-136.3914045439895
 30
0.0
  0
VERTEX
  5
1E3
  8
020
  6
CONTINUOUS
 62
     1
 10
666.8794562128455
 20
-136.3914045439895
 30
0.0
  0
SEQEND
  5
1E4
  8
020
  6
CONTINUOUS
 62
     1
  0
POLYLINE
  5
1E5
  8
020
  6
CONTINUOUS
 62
     1
 66
     1
 10
0.0
 20
0.0
 30
0.0
 70
   129
  0
VERTEX
  5
1E6
  8
020
  6
CONTINUOUS
 62
     1
 10
624.2593200726732
 20
-191.3914045439895
 30
0.0
  0
VERTEX
  5
1E7
  8
020
  6
CONTINUOUS
 62
     1
 10
644.5256746921665
 20
-159.2500208147833
 30
0.0
  0
VERTEX
  5
1E8
  8
020
  6
CONTINUOUS
 62
     1
 10
669.8794385876371
 20
-159.2500208147833
 30
0.0
  0
VERTEX
  5
1E9
  8
020
  6
CONTINUOUS
 62
     1
 10
690.1457932071304
 20
-191.3914045439895
 30
0.0
  0
SEQEND
  5
1EA
  8
020
  6
CONTINUOUS
 62
     1
  0
INSERT
  5
1EB
  8
__-1
 62
     2
  2
___-5
 10
0.0
 20
0.0
 30
0.0
  0
INSERT
  5
1EC
  8
__-1
 62
     2
  2
___-6
 10
0.0
 20
0.0
 30
0.0
  0
LINE
  5
1ED
  8
_U_30EC_U_30A4_U_30E4_U_30
  6
ISO-08_____
 62
     2
 10
668.1695456862059
 20
-125.7500208147706
 30
0.0
 11
668.1695456862059
 21
-146.2213490377748
 31
0.0
  0
INSERT
  5
1EE
  8
020
 62
     2
  2
CALLOUT
 10
652.6164128941873
 20
-123.044960986877
 30
0.0
 41
0.5
 42
0.5
 43
0.5
  0
CIRCLE
  5
1EF
  8
020
  6
CONTINUOUS
 62
     1
 10
800.0220019796243
 20
-149.1639777852332
 30
0.0
 40
21.25
  0
CIRCLE
  5
1F0
  8
020
  6
CONTINUOUS
 62
     1
 10
800.0220019796243
 20
-149.1639777852332
 30
0.0
 40
2.950000000000001
  0
CIRCLE
  5
1F1
  8
020
  6
CONTINUOUS
 62
     1
 10
816.6970019796244
 20
-149.1639777852332
 30
0.0
 40
1.375
  0
CIRCLE
  5
1F2
  8
020
  6
CONTINUOUS
 62
     1
 10
783.3470019796243
 20
-149.1639777852332
 30
0.0
 40
1.375
  0
INSERT
  5
1F3
  8
__-1
 62
     2
  2
___-7
 10
0.0
 20
0.0
 30
0.0
  0
INSERT
  5
1F4
  8
__-1
 62
     2
  2
___-8
 10
0.0
 20
0.0
 30
0.0
  0
LINE
  5
1F5
  8
_U_30EC_U_30A4_U_30E4_U_30
  6
ISO-08_____
 62
     2
 10
776.2720019796243
 20
-149.1639777852333
 30
0.0
 11
823.7720019796243
 21
-149.1639777852333
 31
0.0
  0
VIEWPORT
  5
1F6
 67
     1
  8
0
 10
128.5
 20
97.5
 30
0.0
 40
314.226
 41
222.18
 68
     1
 69
     1
1001
ACAD
1000
MVIEW
1002
{
1070
    16
1010
0.0
1020
0.0
1030
0.0
1010
0.0
1020
0.0
1030
1.0
1040
0.0
1040
222.18
1040
128.5
1040
97.5
1040
50.0
1040
0.0
1040
0.0
1070
     0
1070
   100
1070
     0
1070
     3
1070
     0
1070
     0
1070
     0
1070
     0
1040
0.0
1040
0.0
1040
0.0
1040
10.0
1040
10.0
1040
10.0
1040
10.0
1070
     0
1002
{
1002
}
1002
}
  0
ENDSEC
  0
EOF
