  0
SECTION
  2
HEADER
  9
$ACADVER
  1
AC1009
  9
$INSBASE
 10
0.0
 20
0.0
 30
0.0
  9
$EXTMIN
 10
0.238058
 20
0.4482100000000001
 30
0.0
  9
$EXTMAX
 10
210.24000000000001
 20
297.44999999999987
 30
0.0
  9
$LIMMIN
 10
0.0
 20
0.0
  9
$LIMMAX
 10
12.0
 20
9.0
  9
$ORTHOMODE
 70
     0
  9
$REGENMODE
 70
     1
  9
$FILLMODE
 70
     1
  9
$QTEXTMODE
 70
     0
  9
$MIRRTEXT
 70
     1
  9
$DRAGMODE
 70
     2
  9
$LTSCALE
 40
1.0
  9
$OSMODE
 70
    37
  9
$ATTMODE
 70
     1
  9
$TEXTSIZE
 40
0.0
  9
$TRACEWID
 40
0.05
  9
$TEXTSTYLE
  7
STANDARD
  9
$CLAYER
  8
0
  9
$CELTYPE
  6
CONTINUOUS
  9
$CECOLOR
 62
   256
  9
$DIMSCALE
 40
1.0
  9
$DIMASZ
 40
0.18
  9
$DIMEXO
 40
0.0625
  9
$DIMDLI
 40
0.38
  9
$DIMRND
 40
0.0
  9
$DIMDLE
 40
0.0
  9
$DIMEXE
 40
0.18
  9
$DIMTP
 40
0.0
  9
$DIMTM
 40
0.0
  9
$DIMTXT
 40
0.18
  9
$DIMCEN
 40
0.09
  9
$DIMTSZ
 40
0.0
  9
$DIMTOL
 70
     0
  9
$DIMLIM
 70
     0
  9
$DIMTIH
 70
     1
  9
$DIMTOH
 70
     1
  9
$DIMSE1
 70
     0
  9
$DIMSE2
 70
     0
  9
$DIMTAD
 70
     0
  9
$DIMZIN
 70
     0
  9
$DIMBLK
  1

  9
$DIMASO
 70
     1
  9
$DIMSHO
 70
     1
  9
$DIMPOST
  1

  9
$DIMAPOST
  1

  9
$DIMALT
 70
     0
  9
$DIMALTD
 70
     2
  9
$DIMALTF
 40
25.399999999999999
  9
$DIMLFAC
 40
1.0
  9
$DIMTOFL
 70
     0
  9
$DIMTVP
 40
0.0
  9
$DIMTIX
 70
     0
  9
$DIMSOXD
 70
     0
  9
$DIMSAH
 70
     0
  9
$DIMBLK1
  1

  9
$DIMBLK2
  1

  9
$DIMSTYLE
  2
STANDARD
  9
$DIMCLRD
 70
     0
  9
$DIMCLRE
 70
     0
  9
$DIMCLRT
 70
     0
  9
$DIMTFAC
 40
1.0
  9
$DIMGAP
 40
0.09
  9
$LUNITS
 70
     2
  9
$LUPREC
 70
     4
  9
$SKETCHINC
 40
0.1
  9
$FILLETRAD
 40
0.0
  9
$AUNITS
 70
     0
  9
$AUPREC
 70
     0
  9
$MENU
  1
.
  9
$ELEVATION
 40
0.0
  9
$PELEVATION
 40
0.0
  9
$THICKNESS
 40
0.0
  9
$LIMCHECK
 70
     0
  9
$BLIPMODE
 70
     0
  9
$CHAMFERA
 40
0.0
  9
$CHAMFERB
 40
0.0
  9
$SKPOLY
 70
     0
  9
$TDCREATE
 40
2444972.375
  9
$TDUPDATE
 40
2454458.2899582172
  9
$TDINDWG
 40
0.0000108796
  9
$TDUSRTIMER
 40
0.0000108796
  9
$USRTIMER
 70
     1
  9
$ANGBASE
 50
0.0
  9
$ANGDIR
 70
     0
  9
$PDMODE
 70
     0
  9
$PDSIZE
 40
0.0
  9
$PLINEWID
 40
0.0
  9
$COORDS
 70
     1
  9
$SPLFRAME
 70
     0
  9
$SPLINETYPE
 70
     6
  9
$SPLINESEGS
 70
     8
  9
$ATTDIA
 70
     0
  9
$ATTREQ
 70
     1
  9
$HANDLING
 70
     1
  9
$HANDSEED
  5
51C
  9
$SURFTAB1
 70
     6
  9
$SURFTAB2
 70
     6
  9
$SURFTYPE
 70
     6
  9
$SURFU
 70
     6
  9
$SURFV
 70
     6
  9
$UCSNAME
  2

  9
$UCSORG
 10
0.0
 20
0.0
 30
0.0
  9
$UCSXDIR
 10
1.0
 20
0.0
 30
0.0
  9
$UCSYDIR
 10
0.0
 20
1.0
 30
0.0
  9
$PUCSNAME
  2

  9
$PUCSORG
 10
0.0
 20
0.0
 30
0.0
  9
$PUCSXDIR
 10
1.0
 20
0.0
 30
0.0
  9
$PUCSYDIR
 10
0.0
 20
1.0
 30
0.0
  9
$USERI1
 70
     0
  9
$USERI2
 70
     0
  9
$USERI3
 70
     0
  9
$USERI4
 70
     0
  9
$USERI5
 70
     0
  9
$USERR1
 40
0.0
  9
$USERR2
 40
0.0
  9
$USERR3
 40
0.0
  9
$USERR4
 40
0.0
  9
$USERR5
 40
0.0
  9
$WORLDVIEW
 70
     1
  9
$SHADEDGE
 70
     3
  9
$SHADEDIF
 70
    70
  9
$TILEMODE
 70
     1
  9
$MAXACTVP
 70
    48
  9
$PLIMCHECK
 70
     0
  9
$PEXTMIN
 10
1.0000000000000000E+020
 20
1.0000000000000000E+020
 30
1.0000000000000000E+020
  9
$PEXTMAX
 10
-1.0000000000000000E+020
 20
-1.0000000000000000E+020
 30
-1.0000000000000000E+020
  9
$PLIMMIN
 10
0.0
 20
0.0
  9
$PLIMMAX
 10
12.0
 20
9.0
  9
$UNITMODE
 70
     0
  9
$VISRETAIN
 70
     1
  9
$PLINEGEN
 70
     0
  9
$PSLTSCALE
 70
     1
  0
ENDSEC
  0
SECTION
  2
TABLES
  0
TABLE
  2
VPORT
 70
     2
  0
VPORT
  2
*ACTIVE
 70
     0
 10
0.0
 20
0.0
 11
1.0
 21
1.0
 12
200.31472981708251
 22
148.72499999999991
 13
0.0
 23
0.0
 14
1.0
 24
1.0
 15
0.0
 25
0.0
 16
0.0
 26
0.0
 36
1.0
 17
0.0
 27
0.0
 37
0.0
 40
299.79212598425192
 41
2.2894736842105261
 42
50.0
 43
0.0
 44
0.0
 50
0.0
 51
0.0
 71
     0
 72
   100
 73
     1
 74
     1
 75
     0
 76
     0
 77
     0
 78
     0
  0
ENDTAB
  0
TABLE
  2
LTYPE
 70
     2
  0
LTYPE
  2
CONTINUOUS
 70
     0
  3
Solid line
 72
    65
 73
     0
 40
0.0
  0
LTYPE
  2
AIGENLINE001
 70
     0
  3
generate AI->DXF Converter
 72
    65
 73
     4
 40
5.8561449999999988
 49
3.5278
 49
-0.776115
 49
0.776115
 49
-0.776115
  0
ENDTAB
  0
TABLE
  2
LAYER
 70
     2
  0
LAYER
  2
0
 70
     0
 62
     7
  6
CONTINUOUS
  0
LAYER
  2
_________2
 70
     0
 62
     7
  6
CONTINUOUS
  0
ENDTAB
  0
TABLE
  2
STYLE
 70
     1
  0
STYLE
  2
STANDARD
 70
     0
 40
0.0
 41
0.0
 50
0.0
 71
     0
 42
0.0
  3
TXT
  4
EXTFONT.SHX
  0
ENDTAB
  0
TABLE
  2
VIEW
 70
     0
  0
ENDTAB
  0
TABLE
  2
UCS
 70
     0
  0
ENDTAB
  0
TABLE
  2
APPID
 70
     1
  0
APPID
  2
ACAD
 70
     0
  0
ENDTAB
  0
TABLE
  2
DIMSTYLE
 70
     1
  0
DIMSTYLE
  2
STANDARD
 70
     0
  3

  4

  5

  6

  7

 40
1.0
 41
0.18
 42
0.0625
 43
0.38
 44
0.18
 45
0.0
 46
0.0
 47
0.0
 48
0.0
140
0.18
141
0.09
142
0.0
143
25.399999999999999
144
1.0
145
0.0
146
1.0
147
0.09
 71
     0
 72
     0
 73
     1
 74
     1
 75
     0
 76
     0
 77
     0
 78
     0
170
     0
171
     2
172
     0
173
     0
174
     0
175
     0
176
     0
177
     0
178
     0
  0
ENDTAB
  0
ENDSEC
  0
SECTION
  2
BLOCKS
  0
BLOCK
  8
0
  2
$MODEL_SPACE
 70
     0
 10
0.0
 20
0.0
 30
0.0
  3
$MODEL_SPACE
  1

  0
ENDBLK
  5
1A
  8
0
  0
BLOCK
 67
     1
  8
0
  2
$PAPER_SPACE
 70
     0
 10
0.0
 20
0.0
 30
0.0
  3
$PAPER_SPACE
  1

  0
ENDBLK
  5
17
 67
     1
  8
0
  0
ENDSEC
  0
SECTION
  2
ENTITIES
  0
TEXT
  5
22
  8
0
 62
     7
 10
140.89400000000001
 20
141.85444000000001
 30
0.0
 40
3.0923400000000001
  1
386
 50
90.0
 41
0.5
 72
     1
 11
140.89400000000001
 21
143.916
 31
0.0
  0
TEXT
  5
23
  8
0
 62
     7
 10
140.89400000000001
 20
213.56452499999989
 30
0.0
 40
3.0923400000000001
  1
45
 50
90.0
 41
0.5
 72
     1
 11
140.89400000000001
 21
214.85300000000001
 31
0.0
  0
TEXT
  5
24
  8
0
 62
     7
 10
149.23099999999991
 20
151.10613499999999
 30
0.0
 40
3.0923400000000001
  1
431
 50
90.0
 41
0.5
 72
     1
 11
149.23099999999991
 21
152.90999999999991
 31
0.0
  0
TEXT
  5
25
  8
0
 62
     7
 10
107.032
 20
221.47900000000001
 30
0.0
 40
3.0923400000000001
  1
26六角
 41
0.5
  0
TEXT
  5
26
  8
0
 62
     7
 10
155.8764479999999
 20
193.15999999999991
 30
0.0
 40
3.0923400000000001
  1
ストレーナ
 41
0.5
 72
     2
 11
164.535
 21
193.15999999999991
 31
0.0
  0
TEXT
  5
27
  8
0
 62
     7
 10
134.943398
 20
228.38999999999999
 30
0.0
 40
3.0923400000000001
  1
G 1/2
 41
0.5
 72
     2
 11
141.02500000000001
 21
228.38999999999999
 31
0.0
  0
TEXT
  5
28
  8
0
 62
     7
 10
107.99299999999999
 20
184.84599999999989
 30
0.0
 40
3.0923400000000001
  1
L=370
 41
0.5
  0
TEXT
  5
29
  8
0
 62
     7
 10
111.213121
 20
230.46599999999989
 30
0.0
 40
3.0923400000000001
  1
最大65
 41
0.5
 72
     1
 11
114.357
 21
230.46599999999989
 31
0.0
  0
TEXT
  5
2A
  8
0
 62
     7
 10
122.6342875
 20
69.516599999999997
 30
0.0
 40
3.0923400000000001
  1
%%c60
 41
0.5
 72
     1
 11
124.56699999999999
 21
69.516599999999997
 31
0.0
  0
TEXT
  5
2B
  8
0
 62
     7
 10
106.553
 20
75.613799999999983
 30
0.0
 40
3.0923400000000001
  1
R 1/2
 41
0.5
  0
LINE
  5
2C
  8
0
 62
     7
 10
76.743300000000005
 20
214.56899999999999
 30
0.0
 11
76.828999999999994
 21
214.56800000000001
 31
0.0
  0
ARC
  5
2D
  8
0
 62
     7
 10
72.319824999999994
 20
217.78127900000001
 30
0.0
 40
3.2131759999999989
 50
269.94301699999988
 51
271.45439199999998
  0
ARC
  5
2E
  8
0
 62
     7
 10
77.446481999999989
 20
217.59432000000001
 30
0.0
 40
1.1227139999999991
 50
45.063921999999998
 51
55.388643000000009
  0
ARC
  5
2F
  8
0
 62
     7
 10
76.961297000000002
 20
216.8861939999999
 30
0.0
 40
1.981109
 50
55.472564000000013
 51
76.493257999999983
  0
ARC
  5
30
  8
0
 62
     7
 10
76.801422999999986
 20
216.50393500000001
 30
0.0
 40
2.3910520000000002
 50
74.907391000000018
 51
89.338111999999995
  0
ARC
  5
31
  8
0
 62
     7
 10
76.472275999999994
 20
217.00369599999999
 30
0.0
 40
1.8544869999999991
 50
101.335645
 51
131.66478000000001
  0
ARC
  5
32
  8
0
 62
     7
 10
76.784262999999996
 20
215.72989899999999
 30
0.0
 40
3.1652450000000001
 50
89.189374999999998
 51
102.34084
  0
ARC
  5
33
  8
0
 62
     7
 10
77.467031000000006
 20
215.8385339999999
 30
0.0
 40
1.093491999999999
 50
304.36018599999989
 51
314.94277699999992
  0
ARC
  5
34
  8
0
 62
     7
 10
76.987725999999995
 20
216.54541599999999
 30
0.0
 40
1.9475469999999999
 50
282.94493299999999
 51
304.26339100000001
  0
ARC
  5
35
  8
0
 62
     7
 10
76.804051000000001
 20
217.02838199999991
 30
0.0
 40
2.4604049999999988
 50
270.582019
 51
284.594247
  0
ARC
  5
36
  8
0
 62
     7
 10
71.677157999999991
 20
215.83646100000001
 30
0.0
 40
1.0909770000000001
 50
225.03547599999999
 51
235.640128
  0
ARC
  5
37
  8
0
 62
     7
 10
72.157647999999995
 20
216.544893
 30
0.0
 40
1.946979999999999
 50
235.73378099999999
 51
257.05896300000001
  0
ARC
  5
38
  8
0
 62
     7
 10
72.341624999999993
 20
217.02875
 30
0.0
 40
2.4607730000000001
 50
255.406868
 51
269.41799199999991
  0
ARC
  5
39
  8
0
 62
     7
 10
71.697627999999995
 20
217.59648799999991
 30
0.0
 40
1.1200760000000001
 50
124.61105999999999
 51
134.95782600000001
  0
ARC
  5
3A
  8
0
 62
     7
 10
72.184061999999997
 20
216.88673800000001
 30
0.0
 40
1.980516999999999
 50
103.50281099999999
 51
124.530286
  0
ARC
  5
3B
  8
0
 62
     7
 10
72.344254000000006
 20
216.50357799999989
 30
0.0
 40
2.391408999999999
 50
90.661871999999988
 51
105.091459
  0
ARC
  5
3C
  8
0
 62
     7
 10
72.672471000000002
 20
217.0017399999999
 30
0.0
 40
1.856563
 50
48.353993000000003
 51
78.651781999999983
  0
ARC
  5
3D
  8
0
 62
     7
 10
72.361378000000002
 20
215.7306979999999
 30
0.0
 40
3.164445999999999
 50
77.657604000000006
 51
90.810259999999985
  0
LINE
  5
3E
  8
0
 62
     7
 10
78.905799999999985
 20
215.065
 30
0.0
 11
78.572299999999998
 21
214.56800000000001
 31
0.0
  0
LINE
  5
3F
  8
0
 62
     7
 10
70.572699999999983
 20
214.56800000000001
 30
0.0
 11
70.239199999999997
 21
215.065
 31
0.0
  0
LINE
  5
40
  8
0
 62
     7
 10
78.905799999999985
 20
218.22900000000001
 30
0.0
 11
78.905799999999985
 21
215.065
 31
0.0
  0
LINE
  5
41
  8
0
 62
     7
 10
70.239199999999997
 20
215.065
 30
0.0
 11
70.239199999999997
 21
218.22900000000001
 31
0.0
  0
LINE
  5
42
  8
0
 62
     7
 10
70.239199999999997
 20
215.065
 30
0.0
 11
70.906199999999998
 21
215.065
 31
0.0
  0
LINE
  5
43
  8
0
 62
     7
 10
78.239500000000007
 20
215.065
 30
0.0
 11
78.905799999999985
 21
215.065
 31
0.0
  0
LINE
  5
44
  8
0
 62
     7
 10
78.239500000000007
 20
218.38900000000001
 30
0.0
 11
78.905799999999985
 21
218.38900000000001
 31
0.0
  0
LINE
  5
45
  8
0
 62
     7
 10
70.239199999999997
 20
218.38900000000001
 30
0.0
 11
70.906199999999998
 21
218.38900000000001
 31
0.0
  0
LINE
  5
46
  8
0
 62
     7
 10
70.239199999999997
 20
218.22900000000001
 30
0.0
 11
70.239199999999997
 21
218.38900000000001
 31
0.0
  0
LINE
  5
47
  8
0
 62
     7
 10
77.855699999999985
 20
218.89500000000001
 30
0.0
 11
78.905799999999985
 21
218.38900000000001
 31
0.0
  0
LINE
  5
48
  8
0
 62
     7
 10
70.239199999999997
 20
218.38900000000001
 30
0.0
 11
71.289299999999997
 21
218.89500000000001
 31
0.0
  0
LINE
  5
49
  8
0
 62
     7
 10
71.289299999999997
 20
218.89500000000001
 30
0.0
 11
77.855699999999985
 21
218.89500000000001
 31
0.0
  0
LINE
  5
4A
  8
0
 62
     7
 10
78.905799999999985
 20
218.22900000000001
 30
0.0
 11
78.905799999999985
 21
218.38900000000001
 31
0.0
  0
LINE
  5
4B
  8
0
 62
     7
 10
73.906199999999998
 20
218.38900000000001
 30
0.0
 11
75.239500000000007
 21
218.38900000000001
 31
0.0
  0
LINE
  5
4C
  8
0
 62
     7
 10
70.906199999999998
 20
218.38900000000001
 30
0.0
 11
70.906199999999998
 21
215.065
 31
0.0
  0
LINE
  5
4D
  8
0
 62
     7
 10
73.906199999999998
 20
217.44200000000001
 30
0.0
 11
73.906199999999998
 21
218.38900000000001
 31
0.0
  0
LINE
  5
4E
  8
0
 62
     7
 10
75.239500000000007
 20
218.38900000000001
 30
0.0
 11
75.239500000000007
 21
217.44200000000001
 31
0.0
  0
LINE
  5
4F
  8
0
 62
     7
 10
78.239500000000007
 20
215.065
 30
0.0
 11
78.239500000000007
 21
218.38900000000001
 31
0.0
  0
LINE
  5
50
  8
0
 62
     7
 10
70.572699999999983
 20
214.56800000000001
 30
0.0
 11
72.40100000000001
 21
214.56800000000001
 31
0.0
  0
LINE
  5
51
  8
0
 62
     7
 10
76.743600000000001
 20
214.56800000000001
 30
0.0
 11
78.572299999999998
 21
214.56800000000001
 31
0.0
  0
ARC
  5
52
  8
0
 62
     7
 10
75.094426999999996
 20
257.96657199999999
 30
0.0
 40
4.1668959999999986
 50
321.33892099999991
 51
51.33554199999999
  0
ARC
  5
53
  8
0
 62
     7
 10
75.079796999999985
 20
257.98139399999991
 30
0.0
 40
4.1875799999999996
 50
308.694389
 51
321.30562099999992
  0
ARC
  5
54
  8
0
 62
     7
 10
74.050381999999985
 20
257.96657199999999
 30
0.0
 40
4.1668940000000001
 50
128.6644179999999
 51
218.6611189999999
  0
ARC
  5
55
  8
0
 62
     7
 10
74.065014000000005
 20
257.98139399999991
 30
0.0
 40
4.1875799999999996
 50
218.694399
 51
231.30563099999989
  0
ARC
  5
56
  8
0
 62
     7
 10
74.556518000000011
 20
257.96659099999999
 30
0.0
 40
4.682709
 50
351.81557099999992
 51
8.1844289999999997
  0
LINE
  5
57
  8
0
 62
     7
 10
79.191500000000005
 20
257.2999999999999
 30
0.0
 11
77.459500000000006
 21
254.30000000000001
 31
0.0
  0
ARC
  5
58
  8
0
 62
     7
 10
74.567318
 20
257.97578299999998
 30
0.0
 40
4.6771190000000002
 50
291.80589900000001
 51
308.19438500000001
  0
LINE
  5
59
  8
0
 62
     7
 10
76.304699999999997
 20
253.6329999999999
 30
0.0
 11
72.840299999999999
 21
253.6329999999999
 31
0.0
  0
LINE
  5
5A
  8
0
 62
     7
 10
77.459500000000006
 20
261.63299999999998
 30
0.0
 11
79.191500000000005
 21
258.63299999999992
 31
0.0
  0
ARC
  5
5B
  8
0
 62
     7
 10
74.551494999999989
 20
257.92999199999991
 30
0.0
 40
4.7084449999999993
 50
51.860502999999987
 51
68.139212000000001
  0
LINE
  5
5C
  8
0
 62
     7
 10
72.840299999999999
 20
262.30000000000001
 30
0.0
 11
76.304699999999997
 21
262.30000000000001
 31
0.0
  0
LINE
  5
5D
  8
0
 62
     7
 10
69.953599999999994
 20
258.63299999999992
 30
0.0
 11
71.685500000000005
 21
261.63299999999998
 31
0.0
  0
ARC
  5
5E
  8
0
 62
     7
 10
74.578643999999997
 20
257.95495599999992
 30
0.0
 40
4.6797519999999988
 50
111.805897
 51
128.18694600000001
  0
ARC
  5
5F
  8
0
 62
     7
 10
74.598156000000003
 20
257.96659099999999
 30
0.0
 40
4.6921299999999997
 50
171.832097
 51
188.16790299999991
  0
LINE
  5
60
  8
0
 62
     7
 10
71.685500000000005
 20
254.30000000000001
 30
0.0
 11
69.953599999999994
 21
257.2999999999999
 31
0.0
  0
ARC
  5
61
  8
0
 62
     7
 10
74.592328000000009
 20
258.00193100000001
 30
0.0
 40
4.7068449999999986
 50
231.86051999999989
 51
248.146637
  0
ARC
  5
62
  8
0
 62
     7
 10
74.572492000000011
 20
257.96659
 30
0.0
 40
4.341882
 50
90.0
 51
179.99996999999991
  0
ARC
  5
63
  8
0
 62
     7
 10
74.572490999999999
 20
257.96659
 30
0.0
 40
4.341880999999999
 50
179.99996999999991
 51
270.00002000000001
  0
ARC
  5
64
  8
0
 62
     7
 10
74.572576999999995
 20
257.966678
 30
0.0
 40
4.3419679999999987
 50
269.99888299999998
 51
359.99885399999999
  0
ARC
  5
65
  8
0
 62
     7
 10
74.572576999999995
 20
257.96650399999999
 30
0.0
 40
4.3419679999999987
 50
0.001146
 51
90.001117000000008
  0
LINE
  5
66
  8
0
  6
AIGENLINE001
 62
     7
 10
63.111999999999988
 20
257.96699999999993
 30
0.0
 11
86.268999999999991
 21
257.96699999999993
 31
0.0
  0
ARC
  5
67
  8
0
 62
     7
 10
69.195486000000002
 20
253.67659
 30
0.0
 40
1.380004
 50
3.856436
 51
5.2914060000000003
  0
ARC
  5
68
  8
0
 62
     7
 10
74.689981000000003
 20
254.10959199999999
 30
0.0
 40
4.1316990000000002
 50
183.764734
 51
184.24365099999989
  0
ARC
  5
69
  8
0
 62
     7
 10
74.102900000000005
 20
254.138499
 30
0.0
 40
3.5484219999999991
 50
184.29491200000001
 51
184.852969
  0
ARC
  5
6A
  8
0
 62
     7
 10
74.684814000000003
 20
254.17849399999989
 30
0.0
 40
4.1316990000000002
 50
183.764734
 51
184.24365099999989
  0
ARC
  5
6B
  8
0
 62
     7
 10
74.097731999999993
 20
254.20740099999989
 30
0.0
 40
3.5484219999999991
 50
184.29491200000001
 51
184.852969
  0
ARC
  5
6C
  8
0
 62
     7
 10
74.679645999999991
 20
254.24739700000001
 30
0.0
 40
4.1316990000000002
 50
183.764734
 51
184.24365099999989
  0
ARC
  5
6D
  8
0
 62
     7
 10
74.092563999999996
 20
254.27630400000001
 30
0.0
 40
3.5484219999999991
 50
184.29491200000001
 51
184.852969
  0
ARC
  5
6E
  8
0
 62
     7
 10
73.594610000000003
 20
254.2368779999999
 30
0.0
 40
3.048913999999999
 50
183.59496799999991
 51
184.25688600000001
  0
ARC
  5
6F
  8
0
 62
     7
 10
72.801750999999996
 20
254.243043
 30
0.0
 40
2.2586930000000001
 50
184.135583
 51
185.01229900000001
  0
ARC
  5
70
  8
0
 62
     7
 10
67.197620999999998
 20
253.829385
 30
0.0
 40
3.360687
 50
4.279304999999999
 51
4.8685359999999989
  0
ARC
  5
71
  8
0
 62
     7
 10
67.354279000000005
 20
253.90848199999991
 30
0.0
 40
3.198551999999999
 50
3.6948530000000002
 51
4.3134920000000001
  0
ARC
  5
72
  8
0
 62
     7
 10
67.192453
 20
253.89828700000001
 30
0.0
 40
3.360687
 50
4.279304999999999
 51
4.8685359999999989
  0
ARC
  5
73
  8
0
 62
     7
 10
67.349110999999994
 20
253.97738499999991
 30
0.0
 40
3.198551999999999
 50
3.6948530000000002
 51
4.3134920000000001
  0
ARC
  5
74
  8
0
 62
     7
 10
67.187286
 20
253.96718899999999
 30
0.0
 40
3.360687
 50
4.279304999999999
 51
4.8685359999999989
  0
ARC
  5
75
  8
0
 62
     7
 10
67.343943999999993
 20
254.04628700000001
 30
0.0
 40
3.198551999999999
 50
3.6948530000000002
 51
4.3134920000000001
  0
ARC
  5
76
  8
0
 62
     7
 10
67.182118000000003
 20
254.03609199999991
 30
0.0
 40
3.360687
 50
4.279304999999999
 51
4.8685359999999989
  0
ARC
  5
77
  8
0
 62
     7
 10
67.338775999999996
 20
254.11518899999999
 30
0.0
 40
3.198551999999999
 50
3.6948530000000002
 51
4.3134920000000001
  0
ARC
  5
78
  8
0
 62
     7
 10
67.176950000000005
 20
254.104994
 30
0.0
 40
3.360687
 50
4.279304999999999
 51
4.8685359999999989
  0
ARC
  5
79
  8
0
 62
     7
 10
73.275745999999998
 20
254.62756899999991
 30
0.0
 40
2.7604570000000002
 50
184.21526299999991
 51
184.93261799999999
  0
ARC
  5
7A
  8
0
 62
     7
 10
73.067113000000006
 20
254.620081
 30
0.0
 40
2.5518499999999991
 50
183.61648299999999
 51
184.39190199999999
  0
ARC
  5
7B
  8
0
 62
     7
 10
73.270578
 20
254.696472
 30
0.0
 40
2.7604570000000002
 50
184.21526299999991
 51
184.93261799999999
  0
ARC
  5
7C
  8
0
 62
     7
 10
73.061945999999992
 20
254.68898300000001
 30
0.0
 40
2.5518499999999991
 50
183.61648299999999
 51
184.39190199999999
  0
ARC
  5
7D
  8
0
 62
     7
 10
74.050877999999997
 20
254.82821200000001
 30
0.0
 40
3.5484219999999991
 50
184.29491200000001
 51
184.852969
  0
ARC
  5
7E
  8
0
 62
     7
 10
73.056778000000008
 20
254.7578859999999
 30
0.0
 40
2.5518499999999991
 50
183.61648299999999
 51
184.39190199999999
  0
ARC
  5
7F
  8
0
 62
     7
 10
74.045710999999997
 20
254.89711399999999
 30
0.0
 40
3.5484219999999991
 50
184.29491200000001
 51
184.852969
  0
ARC
  5
80
  8
0
 62
     7
 10
73.051609999999997
 20
254.82678799999999
 30
0.0
 40
2.5518499999999991
 50
183.61648299999999
 51
184.39190199999999
  0
ARC
  5
81
  8
0
 62
     7
 10
74.040543
 20
254.966016
 30
0.0
 40
3.5484219999999991
 50
184.29491200000001
 51
184.852969
  0
ARC
  5
82
  8
0
 62
     7
 10
67.150767999999999
 20
254.44950600000001
 30
0.0
 40
3.360687
 50
4.279304999999999
 51
4.8685359999999989
  0
ARC
  5
83
  8
0
 62
     7
 10
67.895735999999999
 20
254.56978499999991
 30
0.0
 40
2.608813
 50
3.6249289999999998
 51
4.3834160000000004
  0
ARC
  5
84
  8
0
 62
     7
 10
67.145600000000002
 20
254.51840799999991
 30
0.0
 40
3.360687
 50
4.279304999999999
 51
4.8685359999999989
  0
ARC
  5
85
  8
0
 62
     7
 10
67.890568000000002
 20
254.638687
 30
0.0
 40
2.608813
 50
3.6249289999999998
 51
4.3834160000000004
  0
ARC
  5
86
  8
0
 62
     7
 10
67.140431999999976
 20
254.587311
 30
0.0
 40
3.360687
 50
4.279304999999999
 51
4.8685359999999989
  0
ARC
  5
87
  8
0
 62
     7
 10
67.885401000000002
 20
254.7075899999999
 30
0.0
 40
2.608813
 50
3.6249289999999998
 51
4.3834160000000004
  0
ARC
  5
88
  8
0
 62
     7
 10
68.23377099999999
 20
254.74409299999999
 30
0.0
 40
2.2586930000000001
 50
4.1355629999999994
 51
5.0122790000000004
  0
ARC
  5
89
  8
0
 62
     7
 10
67.880232999999976
 20
254.77649199999999
 30
0.0
 40
2.608813
 50
3.6249289999999998
 51
4.3834160000000004
  0
ARC
  5
8A
  8
0
 62
     7
 10
72.248998
 20
255.13462699999991
 30
0.0
 40
1.774697
 50
184.01602999999989
 51
185.13185100000001
  0
ARC
  5
8B
  8
0
 62
     7
 10
74.014359999999996
 20
255.31052800000001
 30
0.0
 40
3.5484219999999991
 50
184.29491200000001
 51
184.852969
  0
ARC
  5
8C
  8
0
 62
     7
 10
73.958540999999997
 20
255.30363999999989
 30
0.0
 40
3.4922449999999992
 50
183.678549
 51
184.250799
  0
ARC
  5
8D
  8
0
 62
     7
 10
73.223725000000002
 20
255.316937
 30
0.0
 40
2.7604570000000002
 50
184.21526299999991
 51
184.93261799999999
  0
ARC
  5
8E
  8
0
 62
     7
 10
73.573937999999998
 20
255.348568
 30
0.0
 40
3.1120529999999991
 50
183.68627599999999
 51
184.32210900000001
  0
ARC
  5
8F
  8
0
 62
     7
 10
73.21855699999999
 20
255.38584
 30
0.0
 40
2.7604570000000002
 50
184.21526299999991
 51
184.93261799999999
  0
ARC
  5
90
  8
0
 62
     7
 10
73.568770000000001
 20
255.41747100000001
 30
0.0
 40
3.1120529999999991
 50
183.68627599999999
 51
184.32210900000001
  0
ARC
  5
91
  8
0
 62
     7
 10
73.213390000000004
 20
255.45474200000001
 30
0.0
 40
2.7604570000000002
 50
184.21526299999991
 51
184.93261799999999
  0
ARC
  5
92
  8
0
 62
     7
 10
67.822822000000002
 20
255.05816799999999
 30
0.0
 40
2.644677999999999
 50
4.1995409999999991
 51
4.9482999999999988
  0
ARC
  5
93
  8
0
 62
     7
 10
67.265738999999996
 20
255.0801669999999
 30
0.0
 40
3.198551999999999
 50
3.6948530000000002
 51
4.3134920000000001
  0
ARC
  5
94
  8
0
 62
     7
 10
67.384799000000001
 20
255.095045
 30
0.0
 40
3.0787169999999988
 50
4.2040290000000002
 51
4.8536179999999991
  0
ARC
  5
95
  8
0
 62
     7
 10
66.355898999999994
 20
255.08608599999991
 30
0.0
 40
4.1054289999999991
 50
3.763182
 51
4.2451629999999989
  0
ARC
  5
96
  8
0
 62
     7
 10
67.098745999999991
 20
255.139218
 30
0.0
 40
3.360687
 50
4.279304999999999
 51
4.8685359999999989
  0
ARC
  5
97
  8
0
 62
     7
 10
66.35073100000001
 20
255.15498899999989
 30
0.0
 40
4.1054289999999991
 50
3.763182
 51
4.2451629999999989
  0
ARC
  5
98
  8
0
 62
     7
 10
67.093579000000005
 20
255.20812100000001
 30
0.0
 40
3.360687
 50
4.279304999999999
 51
4.8685359999999989
  0
ARC
  5
99
  8
0
 62
     7
 10
66.345562999999984
 20
255.22389100000001
 30
0.0
 40
4.1054289999999991
 50
3.763182
 51
4.2451629999999989
  0
ARC
  5
9A
  8
0
 62
     7
 10
67.088410999999994
 20
255.2770229999999
 30
0.0
 40
3.360687
 50
4.279304999999999
 51
4.8685359999999989
  0
ARC
  5
9B
  8
0
 62
     7
 10
72.687027999999984
 20
255.7595839999999
 30
0.0
 40
2.2586930000000001
 50
184.135583
 51
185.01229900000001
  0
ARC
  5
9C
  8
0
 62
     7
 10
72.978573999999995
 20
255.79211000000001
 30
0.0
 40
2.5518499999999991
 50
183.61648299999999
 51
184.39190199999999
  0
ARC
  5
9D
  8
0
 62
     7
 10
72.681860999999998
 20
255.828486
 30
0.0
 40
2.2586930000000001
 50
184.135583
 51
185.01229900000001
  0
ARC
  5
9E
  8
0
 62
     7
 10
72.973406000000011
 20
255.86101199999999
 30
0.0
 40
2.5518499999999991
 50
183.61648299999999
 51
184.39190199999999
  0
ARC
  5
9F
  8
0
 62
     7
 10
72.676693
 20
255.897389
 30
0.0
 40
2.2586930000000001
 50
184.135583
 51
185.01229900000001
  0
ARC
  5
A0
  8
0
 62
     7
 10
72.968237999999999
 20
255.92991499999999
 30
0.0
 40
2.5518499999999991
 50
183.61648299999999
 51
184.39190199999999
  0
ARC
  5
A1
  8
0
 62
     7
 10
72.671525000000003
 20
255.96629100000001
 30
0.0
 40
2.2586930000000001
 50
184.135583
 51
185.01229900000001
  0
ARC
  5
A2
  8
0
 62
     7
 10
67.067396000000002
 20
255.5526319999999
 30
0.0
 40
3.360687
 50
4.279304999999999
 51
4.8685359999999989
  0
ARC
  5
A3
  8
0
 62
     7
 10
67.812364000000002
 20
255.672912
 30
0.0
 40
2.608813
 50
3.6249289999999998
 51
4.3834160000000004
  0
ARC
  5
A4
  8
0
 62
     7
 10
67.062228000000005
 20
255.62153499999999
 30
0.0
 40
3.360687
 50
4.279304999999999
 51
4.8685359999999989
  0
ARC
  5
A5
  8
0
 62
     7
 10
67.807197000000002
 20
255.74181400000001
 30
0.0
 40
2.608813
 50
3.6249289999999998
 51
4.3834160000000004
  0
ARC
  5
A6
  8
0
 62
     7
 10
67.770801000000006
 20
255.747536
 30
0.0
 40
2.644677999999999
 50
4.1995409999999991
 51
4.9482999999999988
  0
ARC
  5
A7
  8
0
 62
     7
 10
75.036570999999995
 20
254.06959699999999
 30
0.0
 40
3.5484219999999991
 50
355.14705099999992
 51
355.70510799999988
  0
ARC
  5
A8
  8
0
 62
     7
 10
80.827840000000009
 20
253.6409669999999
 30
0.0
 40
2.2586930000000001
 50
174.9877009999999
 51
175.864417
  0
ARC
  5
A9
  8
0
 62
     7
 10
81.181378000000009
 20
253.67336599999999
 30
0.0
 40
2.608813
 50
175.6165639999999
 51
176.37505100000001
  0
ARC
  5
AA
  8
0
 62
     7
 10
80.833007999999992
 20
253.709869
 30
0.0
 40
2.2586930000000001
 50
174.9877009999999
 51
175.864417
  0
ARC
  5
AB
  8
0
 62
     7
 10
81.186545999999993
 20
253.742268
 30
0.0
 40
2.608813
 50
175.6165639999999
 51
176.37505100000001
  0
ARC
  5
AC
  8
0
 62
     7
 10
80.838176000000004
 20
253.778772
 30
0.0
 40
2.2586930000000001
 50
174.9877009999999
 51
175.864417
  0
ARC
  5
AD
  8
0
 62
     7
 10
81.191713000000007
 20
253.81117
 30
0.0
 40
2.608813
 50
175.6165639999999
 51
176.37505100000001
  0
ARC
  5
AE
  8
0
 62
     7
 10
81.735589000000004
 20
253.78156999999999
 30
0.0
 40
3.1533829999999998
 50
175.19515100000001
 51
175.835599
  0
ARC
  5
AF
  8
0
 62
     7
 10
80.363627000000008
 20
253.921412
 30
0.0
 40
1.774697
 50
174.8681489999999
 51
175.98397
  0
ARC
  5
B0
  8
0
 62
     7
 10
76.051687000000001
 20
254.2755689999999
 30
0.0
 40
2.5518499999999991
 50
355.60811799999999
 51
356.38353699999999
  0
ARC
  5
B1
  8
0
 62
     7
 10
75.848221999999993
 20
254.35195999999999
 30
0.0
 40
2.7604570000000002
 50
355.06740200000002
 51
355.78475600000002
  0
ARC
  5
B2
  8
0
 62
     7
 10
76.056854999999985
 20
254.344472
 30
0.0
 40
2.5518499999999991
 50
355.60811799999999
 51
356.38353699999999
  0
ARC
  5
B3
  8
0
 62
     7
 10
75.853389000000007
 20
254.420862
 30
0.0
 40
2.7604570000000002
 50
355.06740200000002
 51
355.78475600000002
  0
ARC
  5
B4
  8
0
 62
     7
 10
76.062021999999999
 20
254.413374
 30
0.0
 40
2.5518499999999991
 50
355.60811799999999
 51
356.38353699999999
  0
ARC
  5
B5
  8
0
 62
     7
 10
75.85855699999999
 20
254.48976499999989
 30
0.0
 40
2.7604570000000002
 50
355.06740200000002
 51
355.78475600000002
  0
ARC
  5
B6
  8
0
 62
     7
 10
76.067189999999997
 20
254.4822759999999
 30
0.0
 40
2.5518499999999991
 50
355.60811799999999
 51
356.38353699999999
  0
ARC
  5
B7
  8
0
 62
     7
 10
75.863725000000002
 20
254.55866700000001
 30
0.0
 40
2.7604570000000002
 50
355.06740200000002
 51
355.78475600000002
  0
ARC
  5
B8
  8
0
 62
     7
 10
81.968032999999991
 20
254.104994
 30
0.0
 40
3.360687
 50
175.1314439999999
 51
175.72067499999989
  0
ARC
  5
B9
  8
0
 62
     7
 10
81.811374999999998
 20
254.18409199999991
 30
0.0
 40
3.198551999999999
 50
175.68648899999991
 51
176.305127
  0
ARC
  5
BA
  8
0
 62
     7
 10
81.973200000000006
 20
254.1738959999999
 30
0.0
 40
3.360687
 50
175.1314439999999
 51
175.72067499999989
  0
ARC
  5
BB
  8
0
 62
     7
 10
81.816541999999998
 20
254.252994
 30
0.0
 40
3.198551999999999
 50
175.68648899999991
 51
176.305127
  0
ARC
  5
BC
  8
0
 62
     7
 10
81.978368000000003
 20
254.24279899999999
 30
0.0
 40
3.360687
 50
175.1314439999999
 51
175.72067499999989
  0
ARC
  5
BD
  8
0
 62
     7
 10
81.233399000000006
 20
254.36307799999989
 30
0.0
 40
2.608813
 50
175.6165639999999
 51
176.37505100000001
  0
ARC
  5
BE
  8
0
 62
     7
 10
81.983536000000001
 20
254.31170099999991
 30
0.0
 40
3.360687
 50
175.1314439999999
 51
175.72067499999989
  0
ARC
  5
BF
  8
0
 62
     7
 10
81.238567000000003
 20
254.4319799999999
 30
0.0
 40
2.608813
 50
175.6165639999999
 51
176.37505100000001
  0
ARC
  5
C0
  8
0
 62
     7
 10
77.300149000000005
 20
254.75568799999999
 30
0.0
 40
1.343002
 50
354.68882500000001
 51
356.16333300000002
  0
ARC
  5
C1
  8
0
 62
     7
 10
75.104439999999997
 20
254.966016
 30
0.0
 40
3.5484219999999991
 50
355.14705099999992
 51
355.70510799999988
  0
ARC
  5
C2
  8
0
 62
     7
 10
76.09854
 20
254.89568999999989
 30
0.0
 40
2.5518499999999991
 50
355.60811799999999
 51
356.38353699999999
  0
ARC
  5
C3
  8
0
 62
     7
 10
75.109607999999994
 20
255.03491899999989
 30
0.0
 40
3.5484219999999991
 50
355.14705099999992
 51
355.70510799999988
  0
ARC
  5
C4
  8
0
 62
     7
 10
76.103707999999997
 20
254.96459300000001
 30
0.0
 40
2.5518499999999991
 50
355.60811799999999
 51
356.38353699999999
  0
ARC
  5
C5
  8
0
 62
     7
 10
75.114774999999995
 20
255.1038209999999
 30
0.0
 40
3.5484219999999991
 50
355.14705099999992
 51
355.70510799999988
  0
ARC
  5
C6
  8
0
 62
     7
 10
76.108875999999995
 20
255.03349499999999
 30
0.0
 40
2.5518499999999991
 50
355.60811799999999
 51
356.38353699999999
  0
ARC
  5
C7
  8
0
 62
     7
 10
75.119943000000006
 20
255.17272299999999
 30
0.0
 40
3.5484219999999991
 50
355.14705099999992
 51
355.70510799999988
  0
ARC
  5
C8
  8
0
 62
     7
 10
74.538029000000009
 20
255.212718
 30
0.0
 40
4.1316990000000002
 50
355.75636900000001
 51
356.23528599999992
  0
ARC
  5
C9
  8
0
 62
     7
 10
75.125111000000004
 20
255.24162599999991
 30
0.0
 40
3.5484219999999991
 50
355.14705099999992
 51
355.70510799999988
  0
ARC
  5
CA
  8
0
 62
     7
 10
80.916380000000004
 20
254.812996
 30
0.0
 40
2.2586930000000001
 50
174.9877009999999
 51
175.864417
  0
ARC
  5
CB
  8
0
 62
     7
 10
81.269918000000004
 20
254.84539399999991
 30
0.0
 40
2.608813
 50
175.6165639999999
 51
176.37505100000001
  0
ARC
  5
CC
  8
0
 62
     7
 10
81.306089999999983
 20
254.85339499999989
 30
0.0
 40
2.6442899999999998
 50
175.0930009999999
 51
175.84931199999991
  0
ARC
  5
CD
  8
0
 62
     7
 10
81.863395999999995
 20
254.87345999999999
 30
0.0
 40
3.198551999999999
 50
175.68648899999991
 51
176.305127
  0
ARC
  5
CE
  8
0
 62
     7
 10
81.311481000000001
 20
254.92036399999989
 30
0.0
 40
2.644677999999999
 50
175.05167999999989
 51
175.8004389999999
  0
ARC
  5
CF
  8
0
 62
     7
 10
81.868564000000006
 20
254.942362
 30
0.0
 40
3.198551999999999
 50
175.68648899999991
 51
176.305127
  0
ARC
  5
D0
  8
0
 62
     7
 10
81.316648999999998
 20
254.98926599999999
 30
0.0
 40
2.644677999999999
 50
175.05167999999989
 51
175.8004389999999
  0
ARC
  5
D1
  8
0
 62
     7
 10
80.230963000000003
 20
255.110793
 30
0.0
 40
1.552797999999999
 50
174.788419
 51
176.06370000000001
  0
ARC
  5
D2
  8
0
 62
     7
 10
75.581380999999993
 20
255.48637299999999
 30
0.0
 40
3.1120529999999991
 50
355.67791099999988
 51
356.31374399999987
  0
ARC
  5
D3
  8
0
 62
     7
 10
75.936761000000004
 20
255.5236439999999
 30
0.0
 40
2.7604570000000002
 50
355.06740200000002
 51
355.78475600000002
  0
ARC
  5
D4
  8
0
 62
     7
 10
75.882805000000005
 20
255.5327629999999
 30
0.0
 40
2.8149429999999991
 50
355.68037599999991
 51
356.39031599999998
  0
ARC
  5
D5
  8
0
 62
     7
 10
76.442106999999993
 20
255.552877
 30
0.0
 40
2.2586930000000001
 50
354.98772100000002
 51
355.86443700000001
  0
ARC
  5
D6
  8
0
 62
     7
 10
76.150561999999994
 20
255.5854029999999
 30
0.0
 40
2.5518499999999991
 50
355.60811799999999
 51
356.38353699999999
  0
ARC
  5
D7
  8
0
 62
     7
 10
76.447275000000005
 20
255.621779
 30
0.0
 40
2.2586930000000001
 50
354.98772100000002
 51
355.86443700000001
  0
ARC
  5
D8
  8
0
 62
     7
 10
76.155728999999994
 20
255.65430499999999
 30
0.0
 40
2.5518499999999991
 50
355.60811799999999
 51
356.38353699999999
  0
ARC
  5
D9
  8
0
 62
     7
 10
76.452443000000002
 20
255.69068200000001
 30
0.0
 40
2.2586930000000001
 50
354.98772100000002
 51
355.86443700000001
  0
ARC
  5
DA
  8
0
 62
     7
 10
82.056572000000003
 20
255.2770229999999
 30
0.0
 40
3.360687
 50
175.1314439999999
 51
175.72067499999989
  0
ARC
  5
DB
  8
0
 62
     7
 10
82.804587999999995
 20
255.29279299999999
 30
0.0
 40
4.1054289999999991
 50
175.75481699999989
 51
176.23679899999991
  0
ARC
  5
DC
  8
0
 62
     7
 10
82.06174
 20
255.34592499999991
 30
0.0
 40
3.360687
 50
175.1314439999999
 51
175.72067499999989
  0
ARC
  5
DD
  8
0
 62
     7
 10
82.809755000000024
 20
255.36169599999991
 30
0.0
 40
4.1054289999999991
 50
175.75481699999989
 51
176.23679899999991
  0
ARC
  5
DE
  8
0
 62
     7
 10
82.066907999999998
 20
255.41482799999989
 30
0.0
 40
3.360687
 50
175.1314439999999
 51
175.72067499999989
  0
ARC
  5
DF
  8
0
 62
     7
 10
82.814922999999993
 20
255.430598
 30
0.0
 40
4.1054289999999991
 50
175.75481699999989
 51
176.23679899999991
  0
ARC
  5
E0
  8
0
 62
     7
 10
82.072074999999998
 20
255.48372999999989
 30
0.0
 40
3.360687
 50
175.1314439999999
 51
175.72067499999989
  0
ARC
  5
E1
  8
0
 62
     7
 10
82.820091000000005
 20
255.49950000000001
 30
0.0
 40
4.1054289999999991
 50
175.75481699999989
 51
176.23679899999991
  0
ARC
  5
E2
  8
0
 62
     7
 10
82.077242999999996
 20
255.5526319999999
 30
0.0
 40
3.360687
 50
175.1314439999999
 51
175.72067499999989
  0
ARC
  5
E3
  8
0
 62
     7
 10
75.192979000000008
 20
256.13804499999998
 30
0.0
 40
3.5484219999999991
 50
355.14705099999992
 51
355.70510799999988
  0
ARC
  5
E4
  8
0
 62
     7
 10
76.187080000000009
 20
256.06771900000001
 30
0.0
 40
2.5518499999999991
 50
355.60811799999999
 51
356.38353699999999
  0
ARC
  5
E5
  8
0
 62
     7
 10
75.198146999999992
 20
256.20694700000001
 30
0.0
 40
3.5484219999999991
 50
355.14705099999992
 51
355.70510799999988
  0
ARC
  5
E6
  8
0
 62
     7
 10
75.633402000000004
 20
256.17574100000002
 30
0.0
 40
3.1120529999999991
 50
355.67791099999988
 51
356.31374399999987
  0
LINE
  5
E7
  8
0
 62
     7
 10
78.572299999999998
 20
253.76900000000001
 30
0.0
 11
78.301500000000004
 21
253.30000000000001
 31
0.0
  0
LINE
  5
E8
  8
0
 62
     7
 10
70.843500000000006
 20
253.30000000000001
 30
0.0
 11
70.572400000000002
 21
253.76900000000001
 31
0.0
  0
LINE
  5
E9
  8
0
 62
     7
 10
70.572400000000002
 20
253.30000000000001
 30
0.0
 11
78.572299999999998
 21
253.30000000000001
 31
0.0
  0
ARC
  5
EA
  8
0
 62
     7
 10
74.581575000000001
 20
271.96365400000002
 30
0.0
 40
32.371400999999992
 50
274.25867199999999
 51
282.71825799999999
  0
ARC
  5
EB
  8
0
 62
     7
 10
74.228123999999994
 20
269.72044299999988
 30
0.0
 40
30.109953000000001
 50
256.96371799999997
 51
266.06061299999999
  0
ARC
  5
EC
  8
0
 62
     7
 10
67.828688999999997
 20
242.4060759999999
 30
0.0
 40
2.0572789999999999
 50
188.16525100000001
 51
259.01358900000002
  0
ARC
  5
ED
  8
0
 62
     7
 10
81.317021999999994
 20
242.405383
 30
0.0
 40
2.0564589999999989
 50
280.97019499999999
 51
351.85100499999987
  0
ARC
  5
EE
  8
0
 62
     7
 10
74.09978199999999
 20
243.21946099999991
 30
0.0
 40
2.4100719999999991
 50
281.16932099999991
 51
358.46732099999991
  0
ARC
  5
EF
  8
0
 62
     7
 10
74.153707999999995
 20
243.15470199999999
 30
0.0
 40
2.3552840000000002
 50
0.007203
 51
8.1472039999999986
  0
ARC
  5
F0
  8
0
 62
     7
 10
75.068359000000001
 20
243.22747200000001
 30
0.0
 40
2.4225789999999998
 50
173.76562399999989
 51
258.32206200000002
  0
LINE
  5
F1
  8
0
 62
     7
 10
83.521499999999989
 20
243.488
 30
0.0
 11
74.572500000000005
 21
243.488
 31
0.0
  0
LINE
  5
F2
  8
0
 62
     7
 10
83.521499999999989
 20
243.488
 30
0.0
 11
83.352699999999984
 21
242.114
 31
0.0
  0
LINE
  5
F3
  8
0
 62
     7
 10
65.623500000000007
 20
243.488
 30
0.0
 11
74.572500000000005
 21
243.488
 31
0.0
  0
LINE
  5
F4
  8
0
 62
     7
 10
65.623500000000007
 20
243.488
 30
0.0
 11
65.792299999999983
 21
242.114
 31
0.0
  0
LINE
  5
F5
  8
0
 62
     7
 10
72.989099999999993
 20
248.46700000000001
 30
0.0
 11
72.989099999999993
 21
243.488
 31
0.0
  0
LINE
  5
F6
  8
0
 62
     7
 10
76.155900000000003
 20
248.46700000000001
 30
0.0
 11
76.155900000000003
 21
243.488
 31
0.0
  0
LINE
  5
F7
  8
0
 62
     7
 10
72.572299999999984
 20
250.1999999999999
 30
0.0
 11
72.659400000000005
 21
250.20400000000001
 31
0.0
  0
LINE
  5
F8
  8
0
 62
     7
 10
72.659400000000005
 20
250.20400000000001
 30
0.0
 11
72.746600000000001
 21
250.20899999999989
 31
0.0
  0
LINE
  5
F9
  8
0
 62
     7
 10
72.746600000000001
 20
250.20899999999989
 30
0.0
 11
72.831999999999994
 21
250.22200000000001
 31
0.0
  0
LINE
  5
FA
  8
0
 62
     7
 10
72.831999999999994
 20
250.22200000000001
 30
0.0
 11
72.917500000000004
 21
250.23400000000001
 31
0.0
  0
ARC
  5
FB
  8
0
 62
     7
 10
78.212384
 20
229.90824599999999
 30
0.0
 40
21.004131999999998
 50
104.368247
 51
104.601197
  0
ARC
  5
FC
  8
0
 62
     7
 10
57.859631
 20
310.73940699999991
 30
0.0
 40
62.350235999999988
 50
284.05363999999992
 51
284.13165099999998
  0
ARC
  5
FD
  8
0
 62
     7
 10
54.06089699999999
 20
301.7997529999999
 30
0.0
 40
54.922781999999998
 50
290.26320700000002
 51
290.35019599999993
  0
ARC
  5
FE
  8
0
 62
     7
 10
63.823414
 20
275.65798899999987
 30
0.0
 40
27.017751000000001
 50
290.21828299999999
 51
290.39511900000002
  0
ARC
  5
FF
  8
0
 62
     7
 10
82.129992000000001
 20
232.72621000000001
 30
0.0
 40
19.725204999999988
 50
116.55540499999989
 51
116.7917009999999
  0
ARC
  5
100
  8
0
 62
     7
 10
69.247402000000008
 20
258.512047
 30
0.0
 40
9.0996210000000008
 50
296.52777200000003
 51
297.03805199999988
  0
ARC
  5
101
  8
0
 62
     7
 10
79.664869999999993
 20
240.804329
 30
0.0
 40
11.474361999999999
 50
122.79633800000001
 51
123.18808299999991
  0
ARC
  5
102
  8
0
 62
     7
 10
53.789439000000002
 20
280.167213
 30
0.0
 40
35.632263000000002
 50
303.48752100000002
 51
303.61381599999999
  0
ARC
  5
103
  8
0
 62
     7
 10
82.610555000000005
 20
239.85472300000001
 30
0.0
 40
13.996456
 50
130.21990500000001
 51
130.529055
  0
ARC
  5
104
  8
0
 62
     7
 10
85.731643000000005
 20
236.49921099999989
 30
0.0
 40
18.57525
 50
130.65321399999991
 51
130.88754
  0
ARC
  5
105
  8
0
 62
     7
 10
69.552132999999998
 20
254.253737
 30
0.0
 40
5.4810669999999986
 50
318.07649800000002
 51
318.836749
  0
ARC
  5
106
  8
0
 62
     7
 10
66.258437000000001
 20
257.35878199999991
 30
0.0
 40
10.005884
 50
317.86519099999998
 51
318.28148299999992
  0
ARC
  5
107
  8
0
 62
     7
 10
82.888769999999994
 20
244.741589
 30
0.0
 40
10.92892399999999
 50
146.59175799999991
 51
146.96095700000001
  0
ARC
  5
108
  8
0
 62
     7
 10
64.909948999999997
 20
256.63539600000001
 30
0.0
 40
10.628012999999999
 50
326.43312200000003
 51
326.81122099999988
  0
LINE
  5
109
  8
0
 62
     7
 10
73.804199999999994
 20
250.8179999999999
 30
0.0
 11
73.832099999999997
 21
250.87999999999991
 31
0.0
  0
ARC
  5
10A
  8
0
 62
     7
 10
62.239230999999997
 20
256.19829399999992
 30
0.0
 40
12.754745
 50
335.35504700000001
 51
335.66115600000001
  0
ARC
  5
10B
  8
0
 62
     7
 10
84.440150999999986
 20
248.18877299999991
 30
0.0
 40
10.932052000000001
 50
165.06760600000001
 51
165.41490899999991
  0
ARC
  5
10C
  8
0
 62
     7
 10
85.921132
 20
247.8024879999999
 30
0.0
 40
12.462562
 50
164.801061
 51
165.10611900000001
  0
ARC
  5
10D
  8
0
 62
     7
 10
82.403017000000006
 20
250.37829999999991
 30
0.0
 40
8.5365789999999997
 50
174.91732500000001
 51
175.35360800000001
  0
ARC
  5
10E
  8
0
 62
     7
 10
82.528689000000014
 20
250.39552999999989
 30
0.0
 40
8.6602770000000007
 50
174.66973499999989
 51
175.10452699999991
  0
ARC
  5
10F
  8
0
 62
     7
 10
84.532469999999989
 20
252.183829
 30
0.0
 40
10.67205
 50
184.936454
 51
185.28928400000001
  0
ARC
  5
110
  8
0
 62
     7
 10
84.592268999999987
 20
252.1988549999999
 30
0.0
 40
10.732924999999989
 50
184.63823600000001
 51
184.9889049999999
  0
ARC
  5
111
  8
0
 62
     7
 10
83.352087999999995
 20
253.90767
 30
0.0
 40
9.8023259999999972
 50
194.852486
 51
195.24033399999999
  0
ARC
  5
112
  8
0
 62
     7
 10
84.853916999999996
 20
254.32099099999999
 30
0.0
 40
11.359934000000001
 50
194.591632
 51
194.92585399999999
  0
ARC
  5
113
  8
0
 62
     7
 10
64.587029999999984
 20
247.27202099999991
 30
0.0
 40
10.174814
 50
24.300035000000001
 51
24.683761999999991
  0
ARC
  5
114
  8
0
 62
     7
 10
173.9885449999999
 20
296.62878999999992
 30
0.0
 40
109.845383
 50
204.21002799999999
 51
204.245497
  0
ARC
  5
115
  8
0
 62
     7
 10
107.380531
 20
273.74598399999991
 30
0.0
 40
40.23133
 50
213.3279069999999
 51
213.4277899999999
  0
ARC
  5
116
  8
0
 62
     7
 10
77.339531999999991
 20
254.03825499999991
 30
0.0
 40
4.3030390000000001
 50
212.91091299999999
 51
213.84478399999989
  0
ARC
  5
117
  8
0
 62
     7
 10
79.478245999999999
 20
256.88154600000001
 30
0.0
 40
7.7409169999999987
 50
221.4759
 51
222.01589899999999
  0
ARC
  5
118
  8
0
 62
     7
 10
78.802111999999994
 20
256.343209
 30
0.0
 40
6.8779349999999999
 50
221.24047300000001
 51
221.84631899999991
  0
ARC
  5
119
  8
0
 62
     7
 10
75.695568999999992
 20
254.29635400000001
 30
0.0
 40
3.2329249999999989
 50
228.95629700000001
 51
230.29474400000001
  0
ARC
  5
11A
  8
0
 62
     7
 10
69.183903999999984
 20
246.7908819999999
 30
0.0
 40
6.703574999999999
 50
49.103270999999992
 51
49.750661999999998
  0
ARC
  5
11B
  8
0
 62
     7
 10
80.910743999999994
 20
263.21984800000001
 30
0.0
 40
13.515458000000001
 50
236.49322599999991
 51
236.82538600000001
  0
ARC
  5
11C
  8
0
 62
     7
 10
59.746730000000007
 20
231.249956
 30
0.0
 40
24.824984000000001
 50
56.496752000000001
 51
56.678691000000001
  0
ARC
  5
11D
  8
0
 62
     7
 10
76.827044000000001
 20
259.03719799999999
 30
0.0
 40
7.8399380000000001
 50
243.3586379999999
 51
243.948656
  0
ARC
  5
11E
  8
0
 62
     7
 10
83.191582999999994
 20
271.78702900000002
 30
0.0
 40
22.090035999999991
 50
243.22094799999999
 51
243.43194700000001
  0
ARC
  5
11F
  8
0
 62
     7
 10
65.917586999999983
 20
232.40133700000001
 30
0.0
 40
20.983466
 50
69.579453999999984
 51
69.807143000000011
  0
ARC
  5
120
  8
0
 62
     7
 10
55.619832999999993
 20
204.81315799999999
 30
0.0
 40
50.430757999999997
 50
69.645930000000007
 51
69.740667999999999
  0
ARC
  5
121
  8
0
 62
     7
 10
64.578959999999995
 20
218.425995
 30
0.0
 40
34.754373999999999
 50
75.837377000000004
 51
75.97733199999999
  0
ARC
  5
122
  8
0
 62
     7
 10
70.438893999999991
 20
242.40089900000001
 30
0.0
 40
10.07479
 50
75.272429000000002
 51
75.758088000000001
  0
ARC
  5
123
  8
0
 62
     7
 10
73.971892000000011
 20
259.332966
 30
0.0
 40
7.2440699999999989
 50
260.94674500000002
 51
261.63040099999989
  0
ARC
  5
124
  8
0
 62
     7
 10
81.550678000000005
 20
312.54150399999997
 30
0.0
 40
60.988770999999993
 50
261.70001999999999
 51
261.78112599999992
  0
ARC
  5
125
  8
0
 62
     7
 10
78.253444999999985
 20
369.21552500000001
 30
0.0
 40
117.153482
 50
267.26312100000001
 51
267.30579699999998
  0
LINE
  5
126
  8
0
 62
     7
 10
72.659400000000005
 20
252.19599999999991
 30
0.0
 11
72.572299999999984
 21
252.1999999999999
 31
0.0
  0
LINE
  5
127
  8
0
 62
     7
 10
76.572400000000002
 20
250.1999999999999
 30
0.0
 11
76.681200000000004
 21
250.20400000000001
 31
0.0
  0
LINE
  5
128
  8
0
 62
     7
 10
76.681200000000004
 20
250.20400000000001
 30
0.0
 11
76.790099999999995
 21
250.20899999999989
 31
0.0
  0
LINE
  5
129
  8
0
 62
     7
 10
76.790099999999995
 20
250.20899999999989
 30
0.0
 11
76.896900000000002
 21
250.22200000000001
 31
0.0
  0
LINE
  5
12A
  8
0
 62
     7
 10
76.896900000000002
 20
250.22200000000001
 30
0.0
 11
77.003699999999995
 21
250.23400000000001
 31
0.0
  0
ARC
  5
12B
  8
0
 62
     7
 10
83.605261999999996
 20
218.5517649999999
 30
0.0
 40
32.362727
 50
101.583303
 51
101.77015
  0
LINE
  5
12C
  8
0
 62
     7
 10
77.107100000000003
 20
250.25499999999991
 30
0.0
 11
77.210099999999997
 21
250.2759999999999
 31
0.0
  0
ARC
  5
12D
  8
0
 62
     7
 10
51.019976999999997
 20
339.00339100000002
 30
0.0
 40
92.511950999999996
 50
286.44529399999988
 51
286.50848500000001
  0
ARC
  5
12E
  8
0
 62
     7
 10
96.412841
 20
185.89201800000001
 30
0.0
 40
67.186530000000005
 50
106.4333639999999
 51
106.520375
  0
ARC
  5
12F
  8
0
 62
     7
 10
83.654287999999994
 20
234.961164
 30
0.0
 40
16.594162000000001
 50
111.78283500000001
 51
112.120133
  0
ARC
  5
130
  8
0
 62
     7
 10
74.146416000000002
 20
258.81277399999999
 30
0.0
 40
9.0826729999999998
 50
291.64337899999992
 51
292.25962900000002
  0
ARC
  5
131
  8
0
 62
     7
 10
81.616680999999986
 20
242.77257
 30
0.0
 40
8.6326499999999982
 50
117.213061
 51
117.82669799999989
  0
ARC
  5
132
  8
0
 62
     7
 10
42.032569000000002
 20
317.86202099999991
 30
0.0
 40
76.252048000000002
 50
297.86242199999998
 51
297.93213399999991
  0
ARC
  5
133
  8
0
 62
     7
 10
81.272689
 20
245.38715199999999
 30
0.0
 40
6.2026839999999988
 50
123.791134
 51
124.595241
  0
ARC
  5
134
  8
0
 62
     7
 10
49.880482999999991
 20
290.97993300000002
 30
0.0
 40
49.152892999999999
 50
304.644363
 51
304.74595699999998
  0
ARC
  5
135
  8
0
 62
     7
 10
73.015270999999998
 20
256.08783799999992
 30
0.0
 40
7.3495809999999988
 50
311.59758099999999
 51
312.23280499999998
  0
ARC
  5
136
  8
0
 62
     7
 10
62.811418999999987
 20
267.68361800000002
 30
0.0
 40
22.79504399999999
 50
311.63230199999992
 51
311.83653299999997
  0
ARC
  5
137
  8
0
 62
     7
 10
85.118379000000004
 20
244.93444299999999
 30
0.0
 40
9.1481570000000012
 50
140.45390900000001
 51
140.9307639999999
  0
ARC
  5
138
  8
0
 62
     7
 10
114.61209599999989
 20
220.70987
 30
0.0
 40
47.314993000000001
 50
140.48158699999999
 51
140.57346200000001
  0
ARC
  5
139
  8
0
 62
     7
 10
66.431138000000004
 20
257.41285399999992
 30
0.0
 40
13.414459000000001
 50
330.55087900000001
 51
330.85459300000002
  0
LINE
  5
13A
  8
0
 62
     7
 10
78.147099999999995
 20
250.87999999999991
 30
0.0
 11
78.182299999999984
 21
250.94199999999989
 31
0.0
  0
ARC
  5
13B
  8
0
 62
     7
 10
68.458838
 20
254.21840099999989
 30
0.0
 40
10.260726999999999
 50
341.37646699999988
 51
341.75364000000002
  0
ARC
  5
13C
  8
0
 62
     7
 10
91.381414000000007
 20
246.64874199999991
 30
0.0
 40
13.879372
 50
161.42561499999991
 51
161.70445100000001
  0
ARC
  5
13D
  8
0
 62
     7
 10
82.686801000000003
 20
250.62790200000001
 30
0.0
 40
4.4836269999999994
 50
173.51135300000001
 51
174.34369599999991
  0
ARC
  5
13E
  8
0
 62
     7
 10
100.16164499999989
 20
248.74389300000001
 30
0.0
 40
22.059676
 50
173.60736499999999
 51
173.778413
  0
ARC
  5
13F
  8
0
 62
     7
 10
38.590105999999992
 20
246.85090400000001
 30
0.0
 40
39.886840999999997
 50
6.2597919999999991
 51
6.3543909999999997
  0
ARC
  5
140
  8
0
 62
     7
 10
83.566840999999997
 20
251.86015800000001
 30
0.0
 40
5.3679860000000001
 50
185.65776099999999
 51
186.36028999999999
  0
ARC
  5
141
  8
0
 62
     7
 10
87.948453000000001
 20
254.60769999999991
 30
0.0
 40
10.260726999999999
 50
198.24637999999999
 51
198.62355299999999
  0
ARC
  5
142
  8
0
 62
     7
 10
65.025875999999997
 20
247.03803999999991
 30
0.0
 40
13.879372
 50
18.295528999999998
 51
18.574365
  0
ARC
  5
143
  8
0
 62
     7
 10
1.686115
 20
208.152242
 30
0.0
 40
87.904202999999995
 50
29.515550000000001
 51
29.562007999999999
  0
ARC
  5
144
  8
0
 62
     7
 10
62.311587000000003
 20
242.67638199999999
 30
0.0
 40
18.138200000000001
 50
29.184954999999999
 51
29.40957199999999
  0
ARC
  5
145
  8
0
 62
     7
 10
82.679845999999998
 20
255.39374399999991
 30
0.0
 40
5.9483420000000002
 50
219.10706999999999
 51
219.8378799999999
  0
ARC
  5
146
  8
0
 62
     7
 10
80.879649000000015
 20
254.0095169999999
 30
0.0
 40
3.6788269999999992
 50
218.881641
 51
220.06331
  0
ARC
  5
147
  8
0
 62
     7
 10
81.932493000000008
 20
256.12405699999988
 30
0.0
 40
5.9084449999999986
 50
227.68974399999991
 51
228.47990999999999
  0
ARC
  5
148
  8
0
 62
     7
 10
82.859814999999998
 20
257.278998
 30
0.0
 40
7.3873269999999991
 50
227.76883699999999
 51
228.40081599999999
  0
ARC
  5
149
  8
0
 62
     7
 10
81.367067000000006
 20
256.9724799999999
 30
0.0
 40
6.222383999999999
 50
235.27949100000001
 51
236.07843099999999
  0
ARC
  5
14A
  8
0
 62
     7
 10
58.381456
 20
223.52079900000001
 30
0.0
 40
34.365273999999999
 50
55.546919999999993
 51
55.692377999999998
  0
ARC
  5
14B
  8
0
 62
     7
 10
84.159801999999985
 20
264.20935099999991
 30
0.0
 40
13.871311999999991
 50
242.09983099999999
 51
242.48237900000001
  0
ARC
  5
14C
  8
0
 62
     7
 10
94.409665000000004
 20
283.67085200000002
 30
0.0
 40
35.866965999999991
 50
242.02864
 51
242.17684399999999
  0
ARC
  5
14D
  8
0
 62
     7
 10
84.236917000000005
 20
268.94296500000002
 30
0.0
 40
18.207039999999999
 50
248.271017
 51
248.57763099999991
  0
ARC
  5
14E
  8
0
 62
     7
 10
85.713868000000005
 20
272.54899899999998
 30
0.0
 40
22.103671999999989
 50
247.9219039999999
 51
248.17512799999989
  0
ARC
  5
14F
  8
0
 62
     7
 10
88.342363999999989
 20
289.22215799999998
 30
0.0
 40
38.732146
 50
253.44766399999989
 51
253.59859700000001
  0
ARC
  5
150
  8
0
 62
     7
 10
41.96034199999999
 20
132.76648700000001
 30
0.0
 40
124.45386000000001
 50
73.499623999999983
 51
73.546596999999991
  0
ARC
  5
151
  8
0
 62
     7
 10
36.500656999999997
 20
49.522424999999998
 30
0.0
 40
206.651062
 50
78.638648000000003
 51
78.667777000000001
  0
ARC
  5
152
  8
0
 62
     7
 10
73.054119999999998
 20
232.79439600000001
 30
0.0
 40
19.770182999999999
 50
78.170325000000005
 51
78.476181999999994
  0
ARC
  5
153
  8
0
 62
     7
 10
78.262286000000003
 20
262.87554699999998
 30
0.0
 40
10.783200000000001
 50
262.725663
 51
263.29737899999992
  0
ARC
  5
154
  8
0
 62
     7
 10
83.445781000000011
 20
309.0382029999999
 30
0.0
 40
57.234962000000003
 50
263.32216299999988
 51
263.42979300000002
  0
ARC
  5
155
  8
0
 62
     7
 10
79.080393000000001
 20
313.93768899999998
 30
0.0
 40
61.788607999999989
 50
267.77475499999991
 51
267.87577700000003
  0
ARC
  5
156
  8
0
 62
     7
 10
66.312267000000006
 20
-19.418679000000001
 30
0.0
 40
271.81220200000001
 50
87.813764000000006
 51
87.836728000000008
  0
LINE
  5
157
  8
0
 62
     7
 10
76.572400000000002
 20
252.1999999999999
 30
0.0
 11
76.485600000000005
 21
252.19599999999991
 31
0.0
  0
LINE
  5
158
  8
0
 62
     7
 10
76.485600000000005
 20
252.19599999999991
 30
0.0
 11
76.398399999999995
 21
252.19200000000001
 31
0.0
  0
ARC
  5
159
  8
0
 62
     7
 10
84.425068999999993
 20
196.59624600000001
 30
0.0
 40
56.171737999999991
 50
98.215396000000013
 51
98.303457999999992
  0
ARC
  5
15A
  8
0
 62
     7
 10
74.762861999999998
 20
262.04879499999998
 30
0.0
 40
9.9906419999999994
 50
278.42816399999998
 51
278.92582499999992
  0
ARC
  5
15B
  8
0
 62
     7
 10
78.77852
 20
242.161666
 30
0.0
 40
10.324581
 50
104.30673400000001
 51
104.778792
  0
ARC
  5
15C
  8
0
 62
     7
 10
62.266193000000008
 20
307.483586
 30
0.0
 40
57.052700999999992
 50
283.99345699999998
 51
284.07904699999989
  0
ARC
  5
15D
  8
0
 62
     7
 10
92.087624000000005
 20
208.69697099999991
 30
0.0
 40
46.289563999999991
 50
110.25507500000001
 51
110.3582879999999
  0
ARC
  5
15E
  8
0
 62
     7
 10
58.443106
 20
299.37699800000001
 30
0.0
 40
50.430757999999997
 50
290.25933199999992
 51
290.35406999999998
  0
ARC
  5
15F
  8
0
 62
     7
 10
72.285716000000008
 20
259.14798500000001
 30
0.0
 40
7.9534399999999987
 50
296.49100299999998
 51
297.07482099999999
  0
ARC
  5
160
  8
0
 62
     7
 10
70.236132999999995
 20
263.29396700000001
 30
0.0
 40
12.578352000000001
 50
296.05370099999988
 51
296.42285800000002
  0
ARC
  5
161
  8
0
 62
     7
 10
63.561301
 20
270.31867199999999
 30
0.0
 40
22.014243
 50
303.44845800000002
 51
303.65287799999987
  0
ARC
  5
162
  8
0
 62
     7
 10
71.315258
 20
258.571214
 30
0.0
 40
7.9385000000000003
 50
302.91896400000002
 51
303.48655200000002
  0
ARC
  5
163
  8
0
 62
     7
 10
84.988084999999998
 20
240.98562599999991
 30
0.0
 40
14.382884000000001
 50
130.59275400000001
 51
130.89344800000001
  0
ARC
  5
164
  8
0
 62
     7
 10
69.454027999999994
 20
258.9951529999999
 30
0.0
 40
9.4005860000000006
 50
310.14435400000002
 51
310.604645
  0
ARC
  5
165
  8
0
 62
     7
 10
72.342041000000009
 20
254.591566
 30
0.0
 40
4.2199400000000002
 50
317.75883900000002
 51
318.74940299999992
  0
ARC
  5
166
  8
0
 62
     7
 10
68.324607999999984
 20
258.07896199999999
 30
0.0
 40
9.5392860000000006
 50
318.03502300000008
 51
318.47321899999992
  0
ARC
  5
167
  8
0
 62
     7
 10
72.465811000000002
 20
253.60296700000001
 30
0.0
 40
3.5118649999999998
 50
326.05003900000003
 51
327.19430399999999
  0
ARC
  5
168
  8
0
 62
     7
 10
71.434590999999998
 20
254.19837100000001
 30
0.0
 40
4.700518999999999
 50
326.19472100000002
 51
327.049622
  0
LINE
  5
169
  8
0
 62
     7
 10
75.340400000000002
 20
251.583
 30
0.0
 11
75.3125
 21
251.5209999999999
 31
0.0
  0
ARC
  5
16A
  8
0
 62
     7
 10
175.46891199999999
 20
206.41345200000001
 30
0.0
 40
109.845383
 50
155.75450299999989
 51
155.78997200000001
  0
ARC
  5
16B
  8
0
 62
     7
 10
84.742192000000003
 20
248.8823899999999
 30
0.0
 40
9.8023259999999972
 50
164.7596659999999
 51
165.147514
  0
ARC
  5
16C
  8
0
 62
     7
 10
86.244022000000001
 20
248.46906899999991
 30
0.0
 40
11.359934000000001
 50
165.0741459999999
 51
165.408368
  0
ARC
  5
16D
  8
0
 62
     7
 10
85.877099000000001
 20
250.34715800000001
 30
0.0
 40
10.67205
 50
174.71071599999991
 51
175.06354599999989
  0
ARC
  5
16E
  8
0
 62
     7
 10
85.936898999999997
 20
250.33213199999989
 30
0.0
 40
10.732924999999989
 50
175.0110949999999
 51
175.36176399999991
  0
ARC
  5
16F
  8
0
 62
     7
 10
89.440089
 20
252.36294699999999
 30
0.0
 40
14.24850199999999
 50
184.68149700000001
 51
184.9456439999999
  0
ARC
  5
170
  8
0
 62
     7
 10
88.010044999999991
 20
252.256249
 30
0.0
 40
12.814596
 50
185.02158399999999
 51
185.312353
  0
ARC
  5
171
  8
0
 62
     7
 10
85.830255000000008
 20
253.82268999999999
 30
0.0
 40
10.932052000000001
 50
194.58509100000001
 51
194.93239399999999
  0
ARC
  5
172
  8
0
 62
     7
 10
87.311237000000006
 20
254.20897500000001
 30
0.0
 40
12.462562
 50
194.89388099999991
 51
195.19893899999991
  0
LINE
  5
173
  8
0
 62
     7
 10
75.284599999999983
 20
250.94199999999989
 30
0.0
 11
75.3125
 21
250.87999999999991
 31
0.0
  0
ARC
  5
174
  8
0
 62
     7
 10
-24.843907000000002
 20
205.77197100000001
 30
0.0
 40
109.845383
 50
24.210007999999991
 51
24.245477999999999
  0
ARC
  5
175
  8
0
 62
     7
 10
68.28156899999999
 20
246.12510499999991
 30
0.0
 40
8.4762599999999981
 50
33.140786999999989
 51
33.614870000000003
  0
ARC
  5
176
  8
0
 62
     7
 10
63.963943
 20
243.24044499999999
 30
0.0
 40
13.668685
 50
33.076025000000001
 51
33.371220999999998
  0
ARC
  5
177
  8
0
 62
     7
 10
82.296918000000005
 20
256.82955299999992
 30
0.0
 40
9.2138419999999996
 50
221.70064400000001
 51
222.15272200000001
  0
ARC
  5
178
  8
0
 62
     7
 10
83.326767000000004
 20
257.61201999999997
 30
0.0
 40
10.503038
 50
221.5469049999999
 51
221.94489299999989
  0
ARC
  5
179
  8
0
 62
     7
 10
82.649920999999978
 20
258.80830099999991
 30
0.0
 40
10.88230899999999
 50
229.02963399999999
 51
229.42961199999999
  0
ARC
  5
17A
  8
0
 62
     7
 10
71.197168999999988
 20
245.36958300000001
 30
0.0
 40
6.7746250000000003
 50
49.13735100000001
 51
49.773843999999997
  0
ARC
  5
17B
  8
0
 62
     7
 10
60.918117000000002
 20
228.121002
 30
0.0
 40
26.775625999999999
 50
56.50338
 51
56.672063999999999
  0
ARC
  5
17C
  8
0
 62
     7
 10
71.732230000000001
 20
244.30580399999991
 30
0.0
 40
7.3111490000000003
 50
56.563980999999998
 51
57.176535999999999
  0
ARC
  5
17D
  8
0
 62
     7
 10
79.17247900000001
 20
257.107709
 30
0.0
 40
7.5193119999999993
 50
243.01651200000001
 51
243.63638199999991
  0
ARC
  5
17E
  8
0
 62
     7
 10
71.769227999999984
 20
242.22885699999989
 30
0.0
 40
9.0996210000000008
 50
62.961947999999992
 51
63.472228000000001
  0
ARC
  5
17F
  8
0
 62
     7
 10
56.884170999999988
 20
198.810237
 30
0.0
 40
54.922781999999998
 50
69.649804000000003
 51
69.736793000000006
  0
ARC
  5
180
  8
0
 62
     7
 10
89.543203000000005
 20
286.8271079999999
 30
0.0
 40
38.957900000000002
 50
249.63199900000001
 51
249.754637
  0
LINE
  5
181
  8
0
 62
     7
 10
76.062200000000004
 20
250.2759999999999
 30
0.0
 11
76.144800000000004
 21
250.25499999999991
 31
0.0
  0
ARC
  5
182
  8
0
 62
     7
 10
73.759585999999999
 20
240.891222
 30
0.0
 40
9.6631780000000003
 50
75.205033
 51
75.709401999999983
  0
LINE
  5
183
  8
0
 62
     7
 10
76.227199999999996
 20
250.23400000000001
 30
0.0
 11
76.313000000000002
 21
250.22200000000001
 31
0.0
  0
LINE
  5
184
  8
0
 62
     7
 10
76.313000000000002
 20
250.22200000000001
 30
0.0
 11
76.398399999999995
 21
250.20899999999989
 31
0.0
  0
LINE
  5
185
  8
0
 62
     7
 10
76.398399999999995
 20
250.20899999999989
 30
0.0
 11
76.485600000000005
 21
250.20400000000001
 31
0.0
  0
LINE
  5
186
  8
0
 62
     7
 10
76.485600000000005
 20
250.20400000000001
 30
0.0
 11
76.572400000000002
 21
250.1999999999999
 31
0.0
  0
ARC
  5
187
  8
0
 62
     7
 10
73.124594999999999
 20
237.16965499999989
 30
0.0
 40
15.0403
 50
92.104585999999998
 51
92.556431000000003
  0
ARC
  5
188
  8
0
 62
     7
 10
71.450345999999996
 20
275.39151299999992
 30
0.0
 40
23.218219000000001
 50
272.18418100000002
 51
272.47687599999989
  0
ARC
  5
189
  8
0
 62
     7
 10
71.322065000000009
 20
259.49790999999988
 30
0.0
 40
7.3776469999999996
 50
276.98402900000002
 51
277.89334200000002
  0
ARC
  5
18A
  8
0
 62
     7
 10
69.969898000000001
 20
268.99837599999989
 30
0.0
 40
16.973064000000001
 50
277.21872300000001
 51
277.61512199999999
  0
ARC
  5
18B
  8
0
 62
     7
 10
62.451326000000002
 20
295.19492200000002
 30
0.0
 40
44.104042
 50
282.49232000000001
 51
282.64042899999993
  0
ARC
  5
18C
  8
0
 62
     7
 10
61.630535999999999
 20
297.71960200000001
 30
0.0
 40
46.747191999999998
 50
282.66533900000002
 51
282.80516599999999
  0
ARC
  5
18D
  8
0
 62
     7
 10
96.152557000000002
 20
177.64476499999989
 30
0.0
 40
78.321169999999995
 50
108.053726
 51
108.1340629999999
  0
ARC
  5
18E
  8
0
 62
     7
 10
76.939711000000003
 20
236.2535959999999
 30
0.0
 40
16.643563
 50
108.075373
 51
108.45379299999991
  0
ARC
  5
18F
  8
0
 62
     7
 10
82.701368000000016
 20
227.36348699999999
 30
0.0
 40
27.03067299999999
 50
114.0827189999999
 51
114.3036739999999
  0
ARC
  5
190
  8
0
 62
     7
 10
76.917016000000004
 20
239.940135
 30
0.0
 40
13.188269999999999
 50
113.88870900000001
 51
114.3429449999999
  0
ARC
  5
191
  8
0
 62
     7
 10
78.350506999999993
 20
240.379696
 30
0.0
 40
13.461080000000001
 50
120.68615
 51
121.10310799999991
  0
ARC
  5
192
  8
0
 62
     7
 10
66.453222999999994
 20
260.07204299999989
 30
0.0
 40
9.5461850000000013
 50
300.60067099999992
 51
301.188626
  0
ARC
  5
193
  8
0
 62
     7
 10
64.525246999999993
 20
260.24613900000003
 30
0.0
 40
10.792406
 50
308.48460999999998
 51
308.96991100000002
  0
ARC
  5
194
  8
0
 62
     7
 10
58.512393000000003
 20
267.521727
 30
0.0
 40
20.230174999999988
 50
308.73368099999999
 51
308.99181900000002
  0
ARC
  5
195
  8
0
 62
     7
 10
74.920050000000003
 20
248.2635129999999
 30
0.0
 40
5.1138969999999988
 50
137.157005
 51
138.10783399999991
  0
ARC
  5
196
  8
0
 62
     7
 10
60.101683999999999
 20
261.60411299999993
 30
0.0
 40
14.824909999999999
 50
317.64121399999999
 51
317.96830599999993
  0
ARC
  5
197
  8
0
 62
     7
 10
110.49183600000001
 20
226.9727739999999
 30
0.0
 40
46.501806999999992
 50
147.999199
 51
148.09625299999999
  0
ARC
  5
198
  8
0
 62
     7
 10
57.387577
 20
259.93163799999991
 30
0.0
 40
15.999154999999989
 50
328.12014399999993
 51
328.40158100000002
  0
ARC
  5
199
  8
0
 62
     7
 10
109.184161
 20
237.44437199999999
 30
0.0
 40
40.707673999999997
 50
159.82819199999989
 51
159.93250699999999
  0
ARC
  5
19A
  8
0
 62
     7
 10
94.795404000000005
 20
242.754752
 30
0.0
 40
25.370387999999998
 50
160.0472739999999
 51
160.21438499999999
  0
ARC
  5
19B
  8
0
 62
     7
 10
61.464578000000003
 20
252.44311499999989
 30
0.0
 40
9.5219599999999982
 50
352.92922099999993
 51
353.36351000000002
  0
ARC
  5
19C
  8
0
 62
     7
 10
99.679715000000002
 20
247.88370800000001
 30
0.0
 40
28.964343
 50
173.28403399999999
 51
173.4253709999999
  0
ARC
  5
19D
  8
0
 62
     7
 10
13.59075599999999
 20
244.48658299999991
 30
0.0
 40
57.706938999999998
 50
6.6098070000000009
 51
6.6807479999999977
  0
ARC
  5
19E
  8
0
 62
     7
 10
51.045985999999999
 20
248.6818779999999
 30
0.0
 40
20.018280999999991
 50
6.8172240000000004
 51
7.0218410000000002
  0
ARC
  5
19F
  8
0
 62
     7
 10
79.353323000000003
 20
254.050297
 30
0.0
 40
8.9458419999999972
 50
199.54090099999999
 51
200.01690400000001
  0
ARC
  5
1A0
  8
0
 62
     7
 10
93.039531000000011
 20
259.00166000000002
 30
0.0
 40
23.500149
 50
199.937692
 51
200.119179
  0
ARC
  5
1A1
  8
0
 62
     7
 10
60.498569999999987
 20
244.39276000000001
 30
0.0
 40
12.341122
 50
31.556708
 51
31.921566999999989
  0
ARC
  5
1A2
  8
0
 62
     7
 10
66.099125999999998
 20
247.73906199999999
 30
0.0
 40
5.8180440000000004
 50
31.564391000000001
 51
32.340116999999992
  0
ARC
  5
1A3
  8
0
 62
     7
 10
51.403511000000002
 20
232.81184500000001
 30
0.0
 40
26.631833
 50
42.261600000000001
 51
42.443131000000001
  0
ARC
  5
1A4
  8
0
 62
     7
 10
49.998590999999998
 20
231.51155099999991
 30
0.0
 40
28.546064000000001
 50
42.125864999999997
 51
42.296711000000002
  0
ARC
  5
1A5
  8
0
 62
     7
 10
66.208185999999984
 20
244.35325800000001
 30
0.0
 40
8.0242290000000001
 50
51.152255000000011
 51
51.799983000000012
  0
ARC
  5
1A6
  8
0
 62
     7
 10
76.011009999999985
 20
256.47723100000002
 30
0.0
 40
7.5670179999999991
 50
230.92667999999989
 51
231.61883900000001
  0
ARC
  5
1A7
  8
0
 62
     7
 10
75.843307999999993
 20
258.02173699999997
 30
0.0
 40
8.7419030000000006
 50
238.784347
 51
239.4263959999999
  0
ARC
  5
1A8
  8
0
 62
     7
 10
65.178758999999985
 20
240.14904299999989
 30
0.0
 40
12.070876999999999
 50
58.527445
 51
58.994112999999999
  0
ARC
  5
1A9
  8
0
 62
     7
 10
68.309031000000004
 20
243.23080899999991
 30
0.0
 40
7.8799159999999997
 50
65.50403399999999
 51
66.264271999999991
  0
ARC
  5
1AA
  8
0
 62
     7
 10
65.022864999999996
 20
235.68765999999999
 30
0.0
 40
16.107234999999989
 50
65.621383999999992
 51
65.992184000000009
  0
ARC
  5
1AB
  8
0
 62
     7
 10
67.240679999999983
 20
236.48155099999991
 30
0.0
 40
14.567335
 50
71.861350000000002
 51
72.292863999999994
  0
ARC
  5
1AC
  8
0
 62
     7
 10
80.520273000000003
 20
276.64552300000003
 30
0.0
 40
27.735139
 50
251.62187399999991
 51
251.84896000000001
  0
ARC
  5
1AD
  8
0
 62
     7
 10
39.035083999999998
 20
102.6819839999999
 30
0.0
 40
151.21864500000001
 50
77.412026999999995
 51
77.455224000000001
  0
ARC
  5
1AE
  8
0
 62
     7
 10
62.263561000000003
 20
206.363507
 30
0.0
 40
44.967047999999991
 50
77.36099200000001
 51
77.506258000000003
  0
LINE
  5
1AF
  8
0
 62
     7
 10
72.102699999999999
 20
250.2409999999999
 30
0.0
 11
72.219099999999997
 21
250.226
 31
0.0
  0
LINE
  5
1B0
  8
0
 62
     7
 10
72.219099999999997
 20
250.226
 30
0.0
 11
72.3352
 21
250.21100000000001
 31
0.0
  0
LINE
  5
1B1
  8
0
 62
     7
 10
72.3352
 20
250.21100000000001
 30
0.0
 11
72.453699999999998
 21
250.20500000000001
 31
0.0
  0
LINE
  5
1B2
  8
0
 62
     7
 10
72.453699999999998
 20
250.20500000000001
 30
0.0
 11
72.572299999999984
 21
250.1999999999999
 31
0.0
  0
ARC
  5
1B3
  8
0
 62
     7
 10
73.875807999999992
 20
253.45021899999989
 30
0.0
 40
5.0360969999999989
 50
223.765895
 51
253.02929199999991
  0
ARC
  5
1B4
  8
0
 62
     7
 10
75.275002999999984
 20
253.43980799999991
 30
0.0
 40
5.0244390000000001
 50
286.94181299999991
 51
316.27117099999992
  0
LINE
  5
1B5
  8
0
 62
     7
 10
78.905799999999985
 20
249.96700000000001
 30
0.0
 11
78.905799999999985
 21
252.4669999999999
 31
0.0
  0
LINE
  5
1B6
  8
0
 62
     7
 10
70.238900000000001
 20
249.96700000000001
 30
0.0
 11
70.238900000000001
 21
252.4669999999999
 31
0.0
  0
LINE
  5
1B7
  8
0
 62
     7
 10
74.588999999999984
 20
248.6329999999999
 30
0.0
 11
76.755700000000004
 21
248.6329999999999
 31
0.0
  0
LINE
  5
1B8
  8
0
 62
     7
 10
72.405900000000003
 20
248.6329999999999
 30
0.0
 11
76.739099999999993
 21
248.6329999999999
 31
0.0
  0
LINE
  5
1B9
  8
0
 62
     7
 10
76.739099999999993
 20
248.46700000000001
 30
0.0
 11
76.739099999999993
 21
248.6329999999999
 31
0.0
  0
LINE
  5
1BA
  8
0
 62
     7
 10
70.238900000000001
 20
252.4669999999999
 30
0.0
 11
78.905799999999985
 21
252.4669999999999
 31
0.0
  0
LINE
  5
1BB
  8
0
 62
     7
 10
72.405900000000003
 20
248.46700000000001
 30
0.0
 11
76.739099999999993
 21
248.46700000000001
 31
0.0
  0
LINE
  5
1BC
  8
0
 62
     7
 10
72.405900000000003
 20
248.46700000000001
 30
0.0
 11
72.405900000000003
 21
248.6329999999999
 31
0.0
  0
LINE
  5
1BD
  8
0
 62
     7
 10
70.843500000000006
 20
252.4669999999999
 30
0.0
 11
70.843500000000006
 21
253.30000000000001
 31
0.0
  0
LINE
  5
1BE
  8
0
 62
     7
 10
78.301500000000004
 20
252.4669999999999
 30
0.0
 11
78.301500000000004
 21
253.30000000000001
 31
0.0
  0
LINE
  5
1BF
  8
0
 62
     7
 10
78.572299999999998
 20
252.4669999999999
 30
0.0
 11
78.572299999999998
 21
253.76900000000001
 31
0.0
  0
LINE
  5
1C0
  8
0
 62
     7
 10
70.572400000000002
 20
252.4669999999999
 30
0.0
 11
70.572400000000002
 21
253.76900000000001
 31
0.0
  0
LINE
  5
1C1
  8
0
  6
AIGENLINE001
 62
     7
 10
74.572500000000005
 20
269.63299999999992
 30
0.0
 11
74.572500000000005
 21
236.61500000000001
 31
0.0
  0
ARC
  5
1C2
  8
0
 62
     7
 10
74.243358000000001
 20
258.24779100000001
 30
0.0
 40
10.333092999999989
 50
280.66614800000002
 51
358.442498
  0
ARC
  5
1C3
  8
0
 62
     7
 10
74.572490000000002
 20
257.96693399999992
 30
0.0
 40
10.000144000000001
 50
0.00001
 51
89.999980000000008
  0
ARC
  5
1C4
  8
0
 62
     7
 10
74.572492999999994
 20
257.96693399999992
 30
0.0
 40
10.000144000000001
 50
90.0
 51
179.99996999999991
  0
ARC
  5
1C5
  8
0
 62
     7
 10
74.902190000000004
 20
258.24820599999993
 30
0.0
 40
10.333669
 50
181.55973599999999
 51
259.329342
  0
LINE
  5
1C6
  8
0
 62
     7
 10
77.705799999999996
 20
213.8889999999999
 30
0.0
 11
77.705799999999996
 21
214.58000000000001
 31
0.0
  0
LINE
  5
1C7
  8
0
 62
     7
 10
71.4392
 20
213.8889999999999
 30
0.0
 11
71.4392
 21
214.58000000000001
 31
0.0
  0
LINE
  5
1C8
  8
0
 62
     7
 10
78.039000000000001
 20
213.31200000000001
 30
0.0
 11
78.039000000000001
 21
214.58000000000001
 31
0.0
  0
LINE
  5
1C9
  8
0
 62
     7
 10
71.105699999999999
 20
213.31200000000001
 30
0.0
 11
71.105699999999999
 21
214.58000000000001
 31
0.0
  0
LINE
  5
1CA
  8
0
  6
AIGENLINE001
 62
     7
 10
74.572500000000005
 20
73.498500000000007
 30
0.0
 11
74.572500000000005
 21
223.59999999999999
 31
0.0
  0
ARC
  5
1CB
  8
0
 62
     7
 10
74.553556
 20
215.54197899999991
 30
0.0
 40
2.021792
 50
14.71995199999999
 51
59.744023000000013
  0
ARC
  5
1CC
  8
0
 62
     7
 10
81.761415999999997
 20
203.160402
 30
0.0
 40
2.0778400000000001
 50
242.102294
 51
327.89630599999992
  0
ARC
  5
1CD
  8
0
 62
     7
 10
81.778743999999975
 20
203.05847399999999
 30
0.0
 40
2.010470999999999
 50
330.0950279999999
 51
359.92666000000003
  0
ARC
  5
1CE
  8
0
 62
     7
 10
81.748098999999996
 20
203.03245599999991
 30
0.0
 40
2.0412490000000001
 50
0.6580819999999999
 51
59.326233000000002
  0
ARC
  5
1CF
  8
0
 62
     7
 10
74.570915999999997
 20
215.55189200000001
 30
0.0
 40
2.0045069999999989
 50
60.029866000000013
 51
89.954960000000014
  0
ARC
  5
1D0
  8
0
 62
     7
 10
74.597375
 20
185.94063199999991
 30
0.0
 40
16.582762999999989
 50
68.075178000000008
 51
78.716886999999986
  0
ARC
  5
1D1
  8
0
 62
     7
 10
93.126788000000005
 20
217.92167099999989
 30
0.0
 40
16.722229999999989
 50
186.4067629999999
 51
209.960218
  0
ARC
  5
1D2
  8
0
 62
     7
 10
93.118150000000014
 20
217.943624
 30
0.0
 40
16.725725000000001
 50
210.0401479999999
 51
231.8637149999999
  0
ARC
  5
1D3
  8
0
 62
     7
 10
74.582222999999999
 20
185.74970699999989
 30
0.0
 40
16.772977999999991
 50
78.793734999999984
 51
111.792061
  0
ARC
  5
1D4
  8
0
 62
     7
 10
74.492643000000001
 20
207.142922
 30
0.0
 40
2.1613129999999998
 50
2.117233999999999
 51
87.882756000000001
  0
ARC
  5
1D5
  8
0
 62
     7
 10
74.652349000000001
 20
207.142912
 30
0.0
 40
2.161322999999999
 50
92.117463999999998
 51
177.88250600000001
  0
ARC
  5
1D6
  8
0
 62
     7
 10
74.572490999999999
 20
207.22277
 30
0.0
 40
2.079988999999999
 50
179.99996999999991
 51
270.00002000000001
  0
ARC
  5
1D7
  8
0
 62
     7
 10
74.572490999999999
 20
207.22277
 30
0.0
 40
2.07999
 50
270.00002000000001
 51
359.99998999999991
  0
ARC
  5
1D8
  8
0
 62
     7
 10
74.479910000000004
 20
207.13018899999989
 30
0.0
 40
2.5072509999999988
 50
2.1161509999999999
 51
87.883838999999995
  0
ARC
  5
1D9
  8
0
 62
     7
 10
74.664694999999995
 20
207.1305659999999
 30
0.0
 40
2.5068599999999992
 50
92.107833000000014
 51
177.89213699999999
  0
ARC
  5
1DA
  8
0
 62
     7
 10
74.572490999999999
 20
207.22277
 30
0.0
 40
2.4129599999999991
 50
179.99996999999991
 51
270.00002000000001
  0
ARC
  5
1DB
  8
0
 62
     7
 10
74.572490999999999
 20
207.22277
 30
0.0
 40
2.4129610000000001
 50
270.00002000000001
 51
359.99998999999991
  0
ARC
  5
1DC
  8
0
 62
     7
 10
104.2809169999999
 20
204.0810689999999
 30
0.0
 40
34.435553999999989
 50
164.45086299999991
 51
171.65525199999999
  0
ARC
  5
1DD
  8
0
 62
     7
 10
44.893450999999999
 20
204.08735999999999
 30
0.0
 40
34.405226999999996
 50
8.3415479999999995
 51
15.552295999999989
  0
ARC
  5
1DE
  8
0
 62
     7
 10
121.807565
 20
204.60778799999991
 30
0.0
 40
51.882649999999998
 50
183.0068499999999
 51
186.306477
  0
ARC
  5
1DF
  8
0
 62
     7
 10
26.844445
 20
204.647595
 30
0.0
 40
52.376671999999999
 50
353.70945599999999
 51
356.97832899999997
  0
ARC
  5
1E0
  8
0
 62
     7
 10
76.739125999999999
 20
193.87841499999999
 30
0.0
 40
5.0214939999999997
 50
64.438978000000006
 51
115.561002
  0
ARC
  5
1E1
  8
0
 62
     7
 10
72.405856999999997
 20
193.87696099999999
 30
0.0
 40
5.0228060000000001
 50
64.446136999999993
 51
115.5538429999999
  0
ARC
  5
1E2
  8
0
 62
     7
 10
72.405856999999997
 20
200.604737
 30
0.0
 40
5.0214939999999997
 50
244.438998
 51
295.56102199999998
  0
ARC
  5
1E3
  8
0
 62
     7
 10
76.739125999999999
 20
200.604737
 30
0.0
 40
5.0214939999999997
 50
244.438998
 51
295.56102199999998
  0
LINE
  5
1E4
  8
0
 62
     7
 10
76.896900000000002
 20
213.8889999999999
 30
0.0
 11
78.039000000000001
 21
213.8889999999999
 31
0.0
  0
LINE
  5
1E5
  8
0
 62
     7
 10
74.572500000000005
 20
198.4079999999999
 30
0.0
 11
74.572500000000005
 21
196.0749999999999
 31
0.0
  0
LINE
  5
1E6
  8
0
 62
     7
 10
70.238900000000001
 20
198.9079999999999
 30
0.0
 11
70.238900000000001
 21
195.57400000000001
 31
0.0
  0
LINE
  5
1E7
  8
0
 62
     7
 10
78.905799999999985
 20
198.9079999999999
 30
0.0
 11
78.905799999999985
 21
195.57400000000001
 31
0.0
  0
LINE
  5
1E8
  8
0
 62
     7
 10
78.905799999999985
 20
195.57400000000001
 30
0.0
 11
70.238900000000001
 21
195.57400000000001
 31
0.0
  0
LINE
  5
1E9
  8
0
 62
     7
 10
71.105699999999999
 20
213.8889999999999
 30
0.0
 11
72.247699999999995
 21
213.8889999999999
 31
0.0
  0
LINE
  5
1EA
  8
0
 62
     7
 10
77.705799999999996
 20
213.8889999999999
 30
0.0
 11
78.039000000000001
 21
213.31200000000001
 31
0.0
  0
LINE
  5
1EB
  8
0
 62
     7
 10
71.4392
 20
213.8889999999999
 30
0.0
 11
71.105699999999999
 21
213.31200000000001
 31
0.0
  0
LINE
  5
1EC
  8
0
 62
     7
 10
77.952799999999996
 20
195.57400000000001
 30
0.0
 11
77.983800000000002
 21
194.5749999999999
 31
0.0
  0
LINE
  5
1ED
  8
0
 62
     7
 10
77.961799999999997
 20
195.28399999999999
 30
0.0
 11
71.183400000000006
 21
195.28399999999999
 31
0.0
  0
LINE
  5
1EE
  8
0
 62
     7
 10
77.983800000000002
 20
194.5749999999999
 30
0.0
 11
77.573999999999998
 21
195.28399999999999
 31
0.0
  0
LINE
  5
1EF
  8
0
 62
     7
 10
77.565100000000001
 20
195.57400000000001
 30
0.0
 11
77.573999999999998
 21
195.28399999999999
 31
0.0
  0
LINE
  5
1F0
  8
0
 62
     7
 10
71.161100000000005
 20
194.5749999999999
 30
0.0
 11
71.570800000000006
 21
195.28399999999999
 31
0.0
  0
LINE
  5
1F1
  8
0
 62
     7
 10
71.192499999999995
 20
195.57400000000001
 30
0.0
 11
71.161100000000005
 21
194.5749999999999
 31
0.0
  0
LINE
  5
1F2
  8
0
 62
     7
 10
71.580100000000002
 20
195.57400000000001
 30
0.0
 11
71.570800000000006
 21
195.28399999999999
 31
0.0
  0
ARC
  5
1F3
  8
0
 62
     7
 10
67.460387999999995
 20
203.02796299999989
 30
0.0
 40
2.078168999999999
 50
122.11657700000001
 51
207.88122999999999
  0
ARC
  5
1F4
  8
0
 62
     7
 10
67.355544999999992
 20
203.05628599999989
 30
0.0
 40
2.0001129999999998
 50
210.00339600000001
 51
299.99443100000002
  0
ARC
  5
1F5
  8
0
 62
     7
 10
55.877344999999991
 20
218.01216600000001
 30
0.0
 40
16.872119000000001
 50
308.39184999999992
 51
353.34110600000002
  0
LINE
  5
1F6
  8
0
  6
AIGENLINE001
 62
     7
 10
83.218399999999988
 20
207.2229999999999
 30
0.0
 11
65.674099999999996
 21
207.2229999999999
 31
0.0
  0
ARC
  5
1F7
  8
0
 62
     7
 10
74.594813000000002
 20
215.53914399999991
 30
0.0
 40
2.0261219999999991
 50
120.3066899999999
 51
165.22929500000001
  0
ARC
  5
1F8
  8
0
 62
     7
 10
74.575093999999993
 20
215.54677099999989
 30
0.0
 40
2.009628999999999
 50
90.074198999999993
 51
119.931062
  0
ARC
  5
1F9
  8
0
 62
     7
 10
74.703277999999983
 20
257.83580399999988
 30
0.0
 40
3.5445559999999992
 50
92.114564999999999
 51
177.88540499999991
  0
ARC
  5
1FA
  8
0
 62
     7
 10
74.572490999999999
 20
257.96659099999999
 30
0.0
 40
3.4113549999999999
 50
179.99996999999991
 51
270.00002000000001
  0
ARC
  5
1FB
  8
0
 62
     7
 10
74.572490999999999
 20
257.96659199999999
 30
0.0
 40
3.4113559999999992
 50
270.00002000000001
 51
359.99998999999991
  0
ARC
  5
1FC
  8
0
 62
     7
 10
74.441714000000005
 20
257.83581299999992
 30
0.0
 40
3.5445459999999991
 50
2.1144359999999991
 51
87.885554000000013
  0
ARC
  5
1FD
  8
0
 62
     7
 10
74.572319999999991
 20
257.96641899999992
 30
0.0
 40
2.0165999999999991
 50
89.995106000000007
 51
179.99507600000001
  0
ARC
  5
1FE
  8
0
 62
     7
 10
74.572490999999999
 20
257.96659099999999
 30
0.0
 40
2.016770999999999
 50
179.99996999999991
 51
270.00002000000001
  0
ARC
  5
1FF
  8
0
 62
     7
 10
74.572490999999999
 20
257.96659099999999
 30
0.0
 40
2.016772
 50
270.00002000000001
 51
359.99998999999991
  0
ARC
  5
200
  8
0
 62
     7
 10
74.572663000000006
 20
257.96641899999992
 30
0.0
 40
2.0165999999999991
 50
0.004904
 51
90.004874000000001
  0
ARC
  5
201
  8
0
 62
     7
 10
74.636902000000006
 20
257.90218099999993
 30
0.0
 40
1.765406
 50
92.090865000000008
 51
177.90910500000001
  0
ARC
  5
202
  8
0
 62
     7
 10
74.638048999999995
 20
258.031791
 30
0.0
 40
1.766581999999999
 50
182.11512499999989
 51
267.87329399999987
  0
ARC
  5
203
  8
0
 62
     7
 10
74.572318999999993
 20
257.96641899999992
 30
0.0
 40
1.6999930000000001
 50
270.00582500000002
 51
0.005796
  0
ARC
  5
204
  8
0
 62
     7
 10
74.572490999999999
 20
257.96659099999999
 30
0.0
 40
1.6998209999999989
 50
0.00001
 51
89.999980000000008
  0
ARC
  5
205
  8
0
 62
     7
 10
74.572492000000011
 20
257.96659099999999
 30
0.0
 40
1.8500279999999989
 50
90.0
 51
179.99996999999991
  0
ARC
  5
206
  8
0
 62
     7
 10
74.572490999999999
 20
257.96659099999999
 30
0.0
 40
1.8500279999999989
 50
179.99996999999991
 51
270.00002000000001
  0
ARC
  5
207
  8
0
 62
     7
 10
74.572490999999999
 20
257.96659099999999
 30
0.0
 40
1.8500279999999989
 50
270.00002000000001
 51
359.99998999999991
  0
ARC
  5
208
  8
0
 62
     7
 10
74.572490999999999
 20
257.96659099999999
 30
0.0
 40
1.8500279999999989
 50
0.00001
 51
89.999980000000008
  0
ARC
  5
209
  8
0
 62
     7
 10
74.572319999999991
 20
257.96641899999992
 30
0.0
 40
2.000062999999999
 50
89.995064999999997
 51
179.995036
  0
ARC
  5
20A
  8
0
 62
     7
 10
74.572490999999999
 20
257.96659099999999
 30
0.0
 40
2.0002349999999991
 50
179.99996999999991
 51
270.00002000000001
  0
ARC
  5
20B
  8
0
 62
     7
 10
74.572490999999999
 20
257.96659099999999
 30
0.0
 40
2.0002349999999991
 50
270.00002000000001
 51
359.99998999999991
  0
ARC
  5
20C
  8
0
 62
     7
 10
74.572663000000006
 20
257.96641899999992
 30
0.0
 40
2.000062999999999
 50
0.004945
 51
90.004914999999997
  0
LINE
  5
20D
  8
0
 62
     7
 10
131.2879999999999
 20
207.2229999999999
 30
0.0
 11
142.5629999999999
 21
207.2229999999999
 31
0.0
  0
LINE
  5
20E
  8
0
 62
     7
 10
142.24899999999991
 20
205.012
 30
0.0
 11
141.65700000000001
 21
207.2229999999999
 31
0.0
  0
LINE
  5
20F
  8
0
 62
     7
 10
141.65700000000001
 20
207.2229999999999
 30
0.0
 11
141.06399999999991
 21
205.012
 31
0.0
  0
LINE
  5
210
  8
0
 62
     7
 10
141.06399999999991
 20
205.012
 30
0.0
 11
142.24899999999991
 21
205.012
 31
0.0
  0
LINE
  5
211
  8
0
 62
     7
 10
142.24899999999991
 20
220.01300000000001
 30
0.0
 11
141.65700000000001
 21
222.2229999999999
 31
0.0
  0
LINE
  5
212
  8
0
 62
     7
 10
141.65700000000001
 20
222.2229999999999
 30
0.0
 11
141.06399999999991
 21
220.01300000000001
 31
0.0
  0
LINE
  5
213
  8
0
 62
     7
 10
141.06399999999991
 20
220.01300000000001
 30
0.0
 11
142.24899999999991
 21
220.01300000000001
 31
0.0
  0
LINE
  5
214
  8
0
 62
     7
 10
141.07900000000001
 20
209.434
 30
0.0
 11
141.67099999999991
 21
207.2229999999999
 31
0.0
  0
LINE
  5
215
  8
0
 62
     7
 10
141.67099999999991
 20
207.2229999999999
 30
0.0
 11
142.26300000000001
 21
209.434
 31
0.0
  0
LINE
  5
216
  8
0
 62
     7
 10
142.26300000000001
 20
209.434
 30
0.0
 11
141.07900000000001
 21
209.434
 31
0.0
  0
LINE
  5
217
  8
0
 62
     7
 10
141.07900000000001
 20
80.766599999999997
 30
0.0
 11
141.67099999999991
 21
78.555899999999994
 31
0.0
  0
LINE
  5
218
  8
0
 62
     7
 10
141.67099999999991
 20
78.555899999999994
 30
0.0
 11
142.26300000000001
 21
80.766599999999997
 31
0.0
  0
LINE
  5
219
  8
0
 62
     7
 10
142.26300000000001
 20
80.766599999999997
 30
0.0
 11
141.07900000000001
 21
80.766599999999997
 31
0.0
  0
LINE
  5
21A
  8
0
 62
     7
 10
141.6639999999999
 20
222.2229999999999
 30
0.0
 11
141.6639999999999
 21
78.555899999999994
 31
0.0
  0
ARC
  5
21B
  8
0
 62
     7
 10
76.233180000000004
 20
68.986518000000004
 30
0.0
 40
15.01737399999999
 50
64.692104000000015
 51
82.665796999999984
  0
ARC
  5
21C
  8
0
 62
     7
 10
81.174039000000008
 20
79.501901000000004
 30
0.0
 40
3.3988269999999989
 50
0.8834079999999998
 51
65.329154000000003
  0
ARC
  5
21D
  8
0
 62
     7
 10
72.908653999999999
 20
68.996437
 30
0.0
 40
15.00713399999999
 50
97.327089999999984
 51
115.3137879999999
  0
ARC
  5
21E
  8
0
 62
     7
 10
68.005957999999993
 20
79.478867000000008
 30
0.0
 40
3.4344449999999989
 50
115.04123800000001
 51
178.735649
  0
LINE
  5
21F
  8
0
 62
     7
 10
70.994699999999995
 20
83.880999999999986
 30
0.0
 11
74.572500000000005
 21
83.880999999999986
 31
0.0
  0
LINE
  5
220
  8
0
 62
     7
 10
74.572500000000005
 20
83.880999999999986
 30
0.0
 11
78.150199999999998
 21
83.880999999999986
 31
0.0
  0
LINE
  5
221
  8
0
 62
     7
 10
84.572500000000005
 20
79.554299999999984
 30
0.0
 11
84.572500000000005
 21
78.555899999999994
 31
0.0
  0
LINE
  5
222
  8
0
 62
     7
 10
64.572299999999998
 20
78.555899999999994
 30
0.0
 11
84.572500000000005
 21
78.555899999999994
 31
0.0
  0
LINE
  5
223
  8
0
 62
     7
 10
64.572299999999998
 20
79.554299999999984
 30
0.0
 11
64.572299999999998
 21
78.555899999999994
 31
0.0
  0
LINE
  5
224
  8
0
 62
     7
 10
77.849299999999999
 20
75.627200000000002
 30
0.0
 11
77.941000000000003
 21
78.555899999999994
 31
0.0
  0
LINE
  5
225
  8
0
 62
     7
 10
77.4499
 20
75.227900000000005
 30
0.0
 11
77.553899999999999
 21
78.555899999999994
 31
0.0
  0
LINE
  5
226
  8
0
 62
     7
 10
77.4499
 20
75.227900000000005
 30
0.0
 11
77.849299999999999
 21
75.627200000000002
 31
0.0
  0
LINE
  5
227
  8
0
 62
     7
 10
71.295500000000004
 20
75.627200000000002
 30
0.0
 11
71.203999999999994
 21
78.555899999999994
 31
0.0
  0
LINE
  5
228
  8
0
 62
     7
 10
71.694800000000001
 20
75.227900000000005
 30
0.0
 11
71.590699999999984
 21
78.555899999999994
 31
0.0
  0
LINE
  5
229
  8
0
 62
     7
 10
71.694800000000001
 20
75.227900000000005
 30
0.0
 11
71.295500000000004
 21
75.627200000000002
 31
0.0
  0
LINE
  5
22A
  8
0
 62
     7
 10
77.4499
 20
75.227900000000005
 30
0.0
 11
71.694800000000001
 21
75.227900000000005
 31
0.0
  0
LINE
  5
22B
  8
0
 62
     7
 10
71.295500000000004
 20
75.627200000000002
 30
0.0
 11
77.849299999999999
 21
75.627200000000002
 31
0.0
  0
LINE
  5
22C
  8
0
 62
     7
 10
135.55500000000001
 20
78.555899999999994
 30
0.0
 11
150.99100000000001
 21
78.555899999999994
 31
0.0
  0
LINE
  5
22D
  8
0
 62
     7
 10
128.14500000000001
 20
222.2229999999999
 30
0.0
 11
150.99100000000001
 21
222.2229999999999
 31
0.0
  0
LINE
  5
22E
  8
0
 62
     7
 10
150.67699999999999
 20
220.01300000000001
 30
0.0
 11
150.08499999999989
 21
222.2229999999999
 31
0.0
  0
LINE
  5
22F
  8
0
 62
     7
 10
150.08499999999989
 20
222.2229999999999
 30
0.0
 11
149.49299999999999
 21
220.01300000000001
 31
0.0
  0
LINE
  5
230
  8
0
 62
     7
 10
149.49299999999999
 20
220.01300000000001
 30
0.0
 11
150.67699999999999
 21
220.01300000000001
 31
0.0
  0
LINE
  5
231
  8
0
 62
     7
 10
149.50700000000001
 20
80.766599999999997
 30
0.0
 11
150.09999999999991
 21
78.555899999999994
 31
0.0
  0
LINE
  5
232
  8
0
 62
     7
 10
150.09999999999991
 20
78.555899999999994
 30
0.0
 11
150.69200000000001
 21
80.766599999999997
 31
0.0
  0
LINE
  5
233
  8
0
 62
     7
 10
150.69200000000001
 20
80.766599999999997
 30
0.0
 11
149.50700000000001
 21
80.766599999999997
 31
0.0
  0
LINE
  5
234
  8
0
 62
     7
 10
150.09200000000001
 20
222.2229999999999
 30
0.0
 11
150.09200000000001
 21
78.555899999999994
 31
0.0
  0
LINE
  5
235
  8
0
 62
     7
 10
117.711
 20
217.791
 30
0.0
 11
119.741
 21
216.73400000000001
 31
0.0
  0
LINE
  5
236
  8
0
 62
     7
 10
119.741
 20
216.73400000000001
 30
0.0
 11
118.5119999999999
 21
218.66499999999991
 31
0.0
  0
LINE
  5
237
  8
0
 62
     7
 10
118.5119999999999
 20
218.66499999999991
 30
0.0
 11
117.711
 21
217.791
 31
0.0
  0
LINE
  5
238
  8
0
 62
     7
 10
119.741
 20
216.73400000000001
 30
0.0
 11
115.456
 21
220.66200000000001
 31
0.0
  0
LINE
  5
239
  8
0
 62
     7
 10
115.456
 20
220.66200000000001
 30
0.0
 11
107.006
 21
220.66200000000001
 31
0.0
  0
LINE
  5
23A
  8
0
 62
     7
 10
127.245
 20
218.3959999999999
 30
0.0
 11
126.705
 21
218.3959999999999
 31
0.0
  0
LINE
  5
23B
  8
0
 62
     7
 10
127.245
 20
215.065
 30
0.0
 11
126.705
 21
215.065
 31
0.0
  0
LINE
  5
23C
  8
0
 62
     7
 10
77.983800000000002
 20
221.88999999999999
 30
0.0
 11
71.161100000000005
 21
221.88999999999999
 31
0.0
  0
LINE
  5
23D
  8
0
 62
     7
 10
71.493899999999996
 20
222.2229999999999
 30
0.0
 11
77.65100000000001
 21
222.2229999999999
 31
0.0
  0
LINE
  5
23E
  8
0
 62
     7
 10
77.983800000000002
 20
219.47200000000001
 30
0.0
 11
74.572500000000005
 21
219.47200000000001
 31
0.0
  0
LINE
  5
23F
  8
0
 62
     7
 10
71.161100000000005
 20
219.47200000000001
 30
0.0
 11
74.572500000000005
 21
219.47200000000001
 31
0.0
  0
LINE
  5
240
  8
0
 62
     7
 10
71.161100000000005
 20
218.89500000000001
 30
0.0
 11
71.493899999999996
 21
219.47200000000001
 31
0.0
  0
LINE
  5
241
  8
0
 62
     7
 10
71.161100000000005
 20
218.89500000000001
 30
0.0
 11
71.161100000000005
 21
221.88999999999999
 31
0.0
  0
ARC
  5
242
  8
0
 62
     7
 10
74.690945999999997
 20
257.84813699999989
 30
0.0
 40
3.1992050000000001
 50
92.121922999999995
 51
177.87804700000001
  0
ARC
  5
243
  8
0
 62
     7
 10
74.690543000000005
 20
258.08464199999992
 30
0.0
 40
3.1987869999999989
 50
182.115002
 51
267.88502699999992
  0
ARC
  5
244
  8
0
 62
     7
 10
74.572490999999999
 20
257.96659199999999
 30
0.0
 40
3.0785569999999991
 50
270.00002000000001
 51
359.99998999999991
  0
ARC
  5
245
  8
0
 62
     7
 10
74.572490999999999
 20
257.96659099999999
 30
0.0
 40
3.0785569999999991
 50
0.00001
 51
89.999980000000008
  0
LINE
  5
246
  8
0
 62
     7
 10
71.493899999999996
 20
219.47200000000001
 30
0.0
 11
71.493899999999996
 21
222.2229999999999
 31
0.0
  0
LINE
  5
247
  8
0
 62
     7
 10
71.161100000000005
 20
221.88999999999999
 30
0.0
 11
71.493899999999996
 21
222.2229999999999
 31
0.0
  0
LINE
  5
248
  8
0
 62
     7
 10
77.983800000000002
 20
218.89500000000001
 30
0.0
 11
77.983800000000002
 21
221.88999999999999
 31
0.0
  0
LINE
  5
249
  8
0
 62
     7
 10
77.65100000000001
 20
219.47200000000001
 30
0.0
 11
77.65100000000001
 21
222.2229999999999
 31
0.0
  0
LINE
  5
24A
  8
0
 62
     7
 10
77.983800000000002
 20
218.89500000000001
 30
0.0
 11
77.65100000000001
 21
219.47200000000001
 31
0.0
  0
LINE
  5
24B
  8
0
 62
     7
 10
77.983800000000002
 20
221.88999999999999
 30
0.0
 11
77.65100000000001
 21
222.2229999999999
 31
0.0
  0
LINE
  5
24C
  8
0
 62
     7
 10
127.9789999999999
 20
221.88999999999999
 30
0.0
 11
121.155
 21
221.88999999999999
 31
0.0
  0
LINE
  5
24D
  8
0
 62
     7
 10
124.56699999999999
 20
214.56800000000001
 30
0.0
 11
128.56100000000001
 21
214.56800000000001
 31
0.0
  0
LINE
  5
24E
  8
0
 62
     7
 10
128.06100000000001
 20
218.89500000000001
 30
0.0
 11
124.56699999999999
 21
218.89500000000001
 31
0.0
  0
LINE
  5
24F
  8
0
 62
     7
 10
124.56699999999999
 20
218.89500000000001
 30
0.0
 11
128.56100000000001
 21
218.89500000000001
 31
0.0
  0
LINE
  5
250
  8
0
 62
     7
 10
121.489
 20
222.2229999999999
 30
0.0
 11
127.6459999999999
 21
222.2229999999999
 31
0.0
  0
LINE
  5
251
  8
0
 62
     7
 10
127.9789999999999
 20
219.47200000000001
 30
0.0
 11
124.56699999999999
 21
219.47200000000001
 31
0.0
  0
LINE
  5
252
  8
0
 62
     7
 10
121.155
 20
219.47200000000001
 30
0.0
 11
124.56699999999999
 21
219.47200000000001
 31
0.0
  0
LINE
  5
253
  8
0
 62
     7
 10
121.155
 20
218.89500000000001
 30
0.0
 11
121.489
 21
219.47200000000001
 31
0.0
  0
LINE
  5
254
  8
0
 62
     7
 10
120.57299999999989
 20
218.89500000000001
 30
0.0
 11
124.56699999999999
 21
218.89500000000001
 31
0.0
  0
LINE
  5
255
  8
0
 62
     7
 10
121.072
 20
218.89500000000001
 30
0.0
 11
124.56699999999999
 21
218.89500000000001
 31
0.0
  0
LINE
  5
256
  8
0
 62
     7
 10
121.155
 20
218.89500000000001
 30
0.0
 11
121.155
 21
221.88999999999999
 31
0.0
  0
LINE
  5
257
  8
0
 62
     7
 10
121.489
 20
219.47200000000001
 30
0.0
 11
121.489
 21
222.2229999999999
 31
0.0
  0
LINE
  5
258
  8
0
 62
     7
 10
121.155
 20
221.88999999999999
 30
0.0
 11
121.489
 21
222.2229999999999
 31
0.0
  0
LINE
  5
259
  8
0
 62
     7
 10
124.56699999999999
 20
214.56800000000001
 30
0.0
 11
120.57299999999989
 21
214.56800000000001
 31
0.0
  0
LINE
  5
25A
  8
0
 62
     7
 10
126.705
 20
215.065
 30
0.0
 11
126.705
 21
218.3959999999999
 31
0.0
  0
ARC
  5
25B
  8
0
 62
     7
 10
124.566827
 20
219.50975
 30
0.0
 40
4.9325019999999986
 50
244.31714500000001
 51
295.68287500000002
  0
ARC
  5
25C
  8
0
 62
     7
 10
124.566827
 20
213.98457899999991
 30
0.0
 40
4.9017460000000002
 50
64.144113000000004
 51
115.8558669999999
  0
LINE
  5
25D
  8
0
 62
     7
 10
121.889
 20
215.065
 30
0.0
 11
122.429
 21
215.065
 31
0.0
  0
LINE
  5
25E
  8
0
 62
     7
 10
122.429
 20
215.065
 30
0.0
 11
122.429
 21
218.3959999999999
 31
0.0
  0
LINE
  5
25F
  8
0
 62
     7
 10
121.889
 20
218.3959999999999
 30
0.0
 11
122.429
 21
218.3959999999999
 31
0.0
  0
LINE
  5
260
  8
0
 62
     7
 10
121.889
 20
215.065
 30
0.0
 11
121.889
 21
218.3959999999999
 31
0.0
  0
LINE
  5
261
  8
0
 62
     7
 10
120.57299999999989
 20
214.56800000000001
 30
0.0
 11
119.741
 21
215.0679999999999
 31
0.0
  0
ARC
  5
262
  8
0
 62
     7
 10
120.399129
 20
217.0213509999999
 30
0.0
 40
2.4593940000000001
 50
274.05174399999999
 51
307.28374300000002
  0
LINE
  5
263
  8
0
 62
     7
 10
119.741
 20
215.0679999999999
 30
0.0
 11
119.741
 21
218.3959999999999
 31
0.0
  0
LINE
  5
264
  8
0
 62
     7
 10
120.57299999999989
 20
218.89500000000001
 30
0.0
 11
119.741
 21
218.3959999999999
 31
0.0
  0
ARC
  5
265
  8
0
 62
     7
 10
120.1674389999999
 20
215.84157200000001
 30
0.0
 40
3.080058999999999
 50
56.019038999999992
 51
82.435531999999995
  0
ARC
  5
266
  8
0
 62
     7
 10
128.961342
 20
215.85442
 30
0.0
 40
3.0666839999999991
 50
97.505791000000016
 51
124.0395989999999
  0
ARC
  5
267
  8
0
 62
     7
 10
128.73532599999999
 20
217.02347399999999
 30
0.0
 40
2.4615680000000002
 50
232.7313769999999
 51
265.933176
  0
LINE
  5
268
  8
0
 62
     7
 10
127.9789999999999
 20
218.89500000000001
 30
0.0
 11
127.9789999999999
 21
221.88999999999999
 31
0.0
  0
LINE
  5
269
  8
0
 62
     7
 10
127.6459999999999
 20
219.47200000000001
 30
0.0
 11
127.6459999999999
 21
222.2229999999999
 31
0.0
  0
LINE
  5
26A
  8
0
 62
     7
 10
127.9789999999999
 20
218.89500000000001
 30
0.0
 11
127.6459999999999
 21
219.47200000000001
 31
0.0
  0
LINE
  5
26B
  8
0
 62
     7
 10
127.245
 20
215.065
 30
0.0
 11
127.245
 21
218.3959999999999
 31
0.0
  0
LINE
  5
26C
  8
0
 62
     7
 10
127.9789999999999
 20
221.88999999999999
 30
0.0
 11
127.6459999999999
 21
222.2229999999999
 31
0.0
  0
LINE
  5
26D
  8
0
 62
     7
 10
128.56100000000001
 20
214.56800000000001
 30
0.0
 11
129.393
 21
215.0679999999999
 31
0.0
  0
LINE
  5
26E
  8
0
 62
     7
 10
129.393
 20
215.0679999999999
 30
0.0
 11
129.393
 21
218.3959999999999
 31
0.0
  0
LINE
  5
26F
  8
0
 62
     7
 10
128.56100000000001
 20
218.89500000000001
 30
0.0
 11
129.393
 21
218.3959999999999
 31
0.0
  0
LINE
  5
270
  8
0
 62
     7
 10
128.98099999999991
 20
222.87200000000001
 30
0.0
 11
127.9789999999999
 21
220.81499999999991
 31
0.0
  0
LINE
  5
271
  8
0
 62
     7
 10
127.9789999999999
 20
220.81499999999991
 30
0.0
 11
129.875
 21
222.09599999999989
 31
0.0
  0
LINE
  5
272
  8
0
 62
     7
 10
129.875
 20
222.09599999999989
 30
0.0
 11
128.98099999999991
 21
222.87200000000001
 31
0.0
  0
LINE
  5
273
  8
0
 62
     7
 10
127.744
 20
213.61799999999991
 30
0.0
 11
125.66200000000001
 21
214.56800000000001
 31
0.0
  0
LINE
  5
274
  8
0
 62
     7
 10
125.66200000000001
 20
214.56800000000001
 30
0.0
 11
126.98999999999999
 21
212.70400000000001
 31
0.0
  0
LINE
  5
275
  8
0
 62
     7
 10
126.98999999999999
 20
212.70400000000001
 30
0.0
 11
127.744
 21
213.61799999999991
 31
0.0
  0
LINE
  5
276
  8
0
 62
     7
 10
125.66200000000001
 20
214.56800000000001
 30
0.0
 11
152.58600000000001
 21
192.36199999999991
 31
0.0
  0
LINE
  5
277
  8
0
 62
     7
 10
152.58600000000001
 20
192.36199999999991
 30
0.0
 11
164.66399999999999
 21
192.36199999999991
 31
0.0
  0
LINE
  5
278
  8
0
 62
     7
 10
127.9789999999999
 20
220.81499999999991
 30
0.0
 11
133.86500000000001
 21
227.59200000000001
 31
0.0
  0
LINE
  5
279
  8
0
 62
     7
 10
133.86500000000001
 20
227.59200000000001
 30
0.0
 11
141.154
 21
227.59200000000001
 31
0.0
  0
LINE
  5
27A
  8
0
 62
     7
 10
119.0329999999999
 20
181.17400000000001
 30
0.0
 11
121.155
 21
180.3179999999999
 31
0.0
  0
LINE
  5
27B
  8
0
 62
     7
 10
121.155
 20
180.3179999999999
 30
0.0
 11
119.745
 21
182.1209999999999
 31
0.0
  0
LINE
  5
27C
  8
0
 62
     7
 10
119.745
 20
182.1209999999999
 30
0.0
 11
119.0329999999999
 21
181.17400000000001
 31
0.0
  0
LINE
  5
27D
  8
0
 62
     7
 10
121.155
 20
180.3179999999999
 30
0.0
 11
116.09
 21
184.13
 31
0.0
  0
LINE
  5
27E
  8
0
 62
     7
 10
116.09
 20
184.13
 30
0.0
 11
108.04899999999989
 21
184.13
 31
0.0
  0
ARC
  5
27F
  8
0
 62
     7
 10
126.22788
 20
68.986923000000004
 30
0.0
 40
15.016926
 50
64.692104999999984
 51
82.666976999999989
  0
ARC
  5
280
  8
0
 62
     7
 10
131.16930600000001
 20
79.502476999999999
 30
0.0
 40
3.3980579999999998
 50
0.873901
 51
65.334098999999995
  0
ARC
  5
281
  8
0
 62
     7
 10
122.90350100000001
 20
68.994690000000006
 30
0.0
 40
15.008932
 50
97.328175999999999
 51
115.3127009999999
  0
ARC
  5
282
  8
0
 62
     7
 10
118.00101100000001
 20
79.478623999999996
 30
0.0
 40
3.434822
 50
115.045152
 51
178.73173499999999
  0
LINE
  5
283
  8
0
 62
     7
 10
121.187
 20
195.57400000000001
 30
0.0
 11
121.155
 21
194.57599999999991
 31
0.0
  0
LINE
  5
284
  8
0
 62
     7
 10
127.947
 20
195.57400000000001
 30
0.0
 11
127.9789999999999
 21
194.57599999999991
 31
0.0
  0
LINE
  5
285
  8
0
 62
     7
 10
121.57299999999989
 20
195.57400000000001
 30
0.0
 11
121.56399999999999
 21
195.28399999999999
 31
0.0
  0
LINE
  5
286
  8
0
 62
     7
 10
127.56
 20
195.57400000000001
 30
0.0
 11
127.5689999999999
 21
195.28399999999999
 31
0.0
  0
LINE
  5
287
  8
0
 62
     7
 10
120.9889999999999
 20
83.880999999999986
 30
0.0
 11
124.56699999999999
 21
83.880999999999986
 31
0.0
  0
LINE
  5
288
  8
0
 62
     7
 10
124.56699999999999
 20
83.880999999999986
 30
0.0
 11
128.14500000000001
 21
83.880999999999986
 31
0.0
  0
LINE
  5
289
  8
0
 62
     7
 10
134.56700000000001
 20
79.554299999999984
 30
0.0
 11
134.56700000000001
 21
78.555899999999994
 31
0.0
  0
LINE
  5
28A
  8
0
 62
     7
 10
114.56699999999999
 20
78.555899999999994
 30
0.0
 11
134.56700000000001
 21
78.555899999999994
 31
0.0
  0
LINE
  5
28B
  8
0
 62
     7
 10
114.56699999999999
 20
79.554299999999984
 30
0.0
 11
114.56699999999999
 21
78.555899999999994
 31
0.0
  0
LINE
  5
28C
  8
0
 62
     7
 10
127.8429999999999
 20
75.627200000000002
 30
0.0
 11
127.9349999999999
 21
78.555899999999994
 31
0.0
  0
LINE
  5
28D
  8
0
 62
     7
 10
127.44499999999989
 20
75.227900000000005
 30
0.0
 11
127.54900000000001
 21
78.555899999999994
 31
0.0
  0
LINE
  5
28E
  8
0
 62
     7
 10
127.44499999999989
 20
75.227900000000005
 30
0.0
 11
127.8429999999999
 21
75.627200000000002
 31
0.0
  0
LINE
  5
28F
  8
0
 62
     7
 10
121.29000000000001
 20
75.627200000000002
 30
0.0
 11
121.1989999999999
 21
78.555899999999994
 31
0.0
  0
LINE
  5
290
  8
0
 62
     7
 10
121.68899999999999
 20
75.227900000000005
 30
0.0
 11
121.58499999999989
 21
78.555899999999994
 31
0.0
  0
LINE
  5
291
  8
0
 62
     7
 10
121.68899999999999
 20
75.227900000000005
 30
0.0
 11
121.29000000000001
 21
75.627200000000002
 31
0.0
  0
LINE
  5
292
  8
0
 62
     7
 10
127.44499999999989
 20
75.227900000000005
 30
0.0
 11
121.68899999999999
 21
75.227900000000005
 31
0.0
  0
LINE
  5
293
  8
0
 62
     7
 10
77.983800000000002
 20
194.57599999999991
 30
0.0
 11
77.983800000000002
 21
83.880999999999986
 31
0.0
  0
LINE
  5
294
  8
0
 62
     7
 10
71.161100000000005
 20
194.57599999999991
 30
0.0
 11
71.161100000000005
 21
83.880999999999986
 31
0.0
  0
LINE
  5
295
  8
0
 62
     7
 10
127.9789999999999
 20
194.57599999999991
 30
0.0
 11
127.9789999999999
 21
83.880999999999986
 31
0.0
  0
LINE
  5
296
  8
0
 62
     7
 10
127.9789999999999
 20
194.57599999999991
 30
0.0
 11
127.5689999999999
 21
195.28399999999999
 31
0.0
  0
LINE
  5
297
  8
0
 62
     7
 10
127.956
 20
195.28399999999999
 30
0.0
 11
121.178
 21
195.28399999999999
 31
0.0
  0
LINE
  5
298
  8
0
 62
     7
 10
121.155
 20
194.57599999999991
 30
0.0
 11
121.56399999999999
 21
195.28399999999999
 31
0.0
  0
LINE
  5
299
  8
0
 62
     7
 10
121.155
 20
194.57599999999991
 30
0.0
 11
121.155
 21
83.880999999999986
 31
0.0
  0
LINE
  5
29A
  8
0
 62
     7
 10
121.29000000000001
 20
75.627200000000002
 30
0.0
 11
127.8429999999999
 21
75.627200000000002
 31
0.0
  0
LINE
  5
29B
  8
0
 62
     7
 10
129.22599999999991
 20
207.2229999999999
 30
0.0
 11
129.22599999999991
 21
207.303
 31
0.0
  0
LINE
  5
29C
  8
0
 62
     7
 10
129.22599999999991
 20
207.303
 30
0.0
 11
129.22599999999991
 21
207.38300000000001
 31
0.0
  0
LINE
  5
29D
  8
0
 62
     7
 10
129.22599999999991
 20
207.38300000000001
 30
0.0
 11
129.2239999999999
 21
207.46299999999991
 31
0.0
  0
LINE
  5
29E
  8
0
 62
     7
 10
129.2239999999999
 20
207.46299999999991
 30
0.0
 11
129.2229999999999
 21
207.54299999999989
 31
0.0
  0
LINE
  5
29F
  8
0
 62
     7
 10
129.2229999999999
 20
207.54299999999989
 30
0.0
 11
129.22200000000001
 21
207.62299999999991
 31
0.0
  0
LINE
  5
2A0
  8
0
 62
     7
 10
129.22200000000001
 20
207.62299999999991
 30
0.0
 11
129.21899999999991
 21
207.703
 31
0.0
  0
LINE
  5
2A1
  8
0
 62
     7
 10
129.21899999999991
 20
207.703
 30
0.0
 11
129.21700000000001
 21
207.78299999999999
 31
0.0
  0
LINE
  5
2A2
  8
0
 62
     7
 10
129.21700000000001
 20
207.78299999999999
 30
0.0
 11
129.215
 21
207.86299999999989
 31
0.0
  0
LINE
  5
2A3
  8
0
 62
     7
 10
129.215
 20
207.86299999999989
 30
0.0
 11
129.21199999999999
 21
207.9429999999999
 31
0.0
  0
LINE
  5
2A4
  8
0
 62
     7
 10
129.21199999999999
 20
207.9429999999999
 30
0.0
 11
129.20899999999989
 21
208.02299999999991
 31
0.0
  0
LINE
  5
2A5
  8
0
 62
     7
 10
129.20899999999989
 20
208.02299999999991
 30
0.0
 11
129.20599999999999
 21
208.10299999999989
 31
0.0
  0
LINE
  5
2A6
  8
0
 62
     7
 10
129.20599999999999
 20
208.10299999999989
 30
0.0
 11
129.20199999999991
 21
208.18299999999999
 31
0.0
  0
LINE
  5
2A7
  8
0
 62
     7
 10
129.20199999999991
 20
208.18299999999999
 30
0.0
 11
129.197
 21
208.26299999999989
 31
0.0
  0
LINE
  5
2A8
  8
0
 62
     7
 10
129.197
 20
208.26299999999989
 30
0.0
 11
129.1929999999999
 21
208.3429999999999
 31
0.0
  0
LINE
  5
2A9
  8
0
 62
     7
 10
129.1929999999999
 20
208.3429999999999
 30
0.0
 11
129.1879999999999
 21
208.423
 31
0.0
  0
LINE
  5
2AA
  8
0
 62
     7
 10
129.1879999999999
 20
208.423
 30
0.0
 11
129.184
 21
208.5029999999999
 31
0.0
  0
LINE
  5
2AB
  8
0
 62
     7
 10
129.184
 20
208.5029999999999
 30
0.0
 11
129.17899999999989
 21
208.56699999999989
 31
0.0
  0
LINE
  5
2AC
  8
0
 62
     7
 10
129.17899999999989
 20
208.56699999999989
 30
0.0
 11
129.17500000000001
 21
208.63200000000001
 31
0.0
  0
LINE
  5
2AD
  8
0
 62
     7
 10
129.17500000000001
 20
208.63200000000001
 30
0.0
 11
129.1699999999999
 21
208.69599999999991
 31
0.0
  0
LINE
  5
2AE
  8
0
 62
     7
 10
129.1699999999999
 20
208.69599999999991
 30
0.0
 11
129.16499999999991
 21
208.761
 31
0.0
  0
LINE
  5
2AF
  8
0
 62
     7
 10
129.16499999999991
 20
208.761
 30
0.0
 11
129.16
 21
208.8249999999999
 31
0.0
  0
LINE
  5
2B0
  8
0
 62
     7
 10
129.16
 20
208.8249999999999
 30
0.0
 11
129.15499999999989
 21
208.8899999999999
 31
0.0
  0
LINE
  5
2B1
  8
0
 62
     7
 10
129.15499999999989
 20
208.8899999999999
 30
0.0
 11
129.149
 21
208.95399999999989
 31
0.0
  0
LINE
  5
2B2
  8
0
 62
     7
 10
129.149
 20
208.95399999999989
 30
0.0
 11
129.143
 21
209.018
 31
0.0
  0
LINE
  5
2B3
  8
0
 62
     7
 10
129.143
 20
209.018
 30
0.0
 11
129.137
 21
209.08299999999991
 31
0.0
  0
LINE
  5
2B4
  8
0
 62
     7
 10
129.137
 20
209.08299999999991
 30
0.0
 11
129.13099999999989
 21
209.14699999999999
 31
0.0
  0
LINE
  5
2B5
  8
0
 62
     7
 10
129.13099999999989
 20
209.14699999999999
 30
0.0
 11
129.12399999999991
 21
209.2109999999999
 31
0.0
  0
LINE
  5
2B6
  8
0
 62
     7
 10
129.12399999999991
 20
209.2109999999999
 30
0.0
 11
129.11799999999991
 21
209.2759999999999
 31
0.0
  0
LINE
  5
2B7
  8
0
 62
     7
 10
129.11799999999991
 20
209.2759999999999
 30
0.0
 11
129.1109999999999
 21
209.33999999999989
 31
0.0
  0
LINE
  5
2B8
  8
0
 62
     7
 10
129.1109999999999
 20
209.33999999999989
 30
0.0
 11
129.1039999999999
 21
209.405
 31
0.0
  0
LINE
  5
2B9
  8
0
 62
     7
 10
129.1039999999999
 20
209.405
 30
0.0
 11
129.09700000000001
 21
209.46899999999999
 31
0.0
  0
LINE
  5
2BA
  8
0
 62
     7
 10
129.09700000000001
 20
209.46899999999999
 30
0.0
 11
129.09
 21
209.5329999999999
 31
0.0
  0
LINE
  5
2BB
  8
0
 62
     7
 10
129.09
 20
209.5329999999999
 30
0.0
 11
129.08299999999991
 21
209.58999999999989
 31
0.0
  0
LINE
  5
2BC
  8
0
 62
     7
 10
129.08299999999991
 20
209.58999999999989
 30
0.0
 11
129.07599999999991
 21
209.6459999999999
 31
0.0
  0
LINE
  5
2BD
  8
0
 62
     7
 10
129.07599999999991
 20
209.6459999999999
 30
0.0
 11
129.0689999999999
 21
209.703
 31
0.0
  0
LINE
  5
2BE
  8
0
 62
     7
 10
129.0689999999999
 20
209.703
 30
0.0
 11
129.06200000000001
 21
209.75999999999991
 31
0.0
  0
LINE
  5
2BF
  8
0
 62
     7
 10
129.06200000000001
 20
209.75999999999991
 30
0.0
 11
129.05299999999991
 21
209.81599999999989
 31
0.0
  0
LINE
  5
2C0
  8
0
 62
     7
 10
129.05299999999991
 20
209.81599999999989
 30
0.0
 11
129.04599999999991
 21
209.87299999999991
 31
0.0
  0
LINE
  5
2C1
  8
0
 62
     7
 10
129.04599999999991
 20
209.87299999999991
 30
0.0
 11
129.0379999999999
 21
209.92899999999989
 31
0.0
  0
LINE
  5
2C2
  8
0
 62
     7
 10
129.0379999999999
 20
209.92899999999989
 30
0.0
 11
129.02899999999991
 21
209.9849999999999
 31
0.0
  0
LINE
  5
2C3
  8
0
 62
     7
 10
129.02899999999991
 20
209.9849999999999
 30
0.0
 11
129.01900000000001
 21
210.042
 31
0.0
  0
LINE
  5
2C4
  8
0
 62
     7
 10
129.01900000000001
 20
210.042
 30
0.0
 11
129.0089999999999
 21
210.0979999999999
 31
0.0
  0
LINE
  5
2C5
  8
0
 62
     7
 10
129.0089999999999
 20
210.0979999999999
 30
0.0
 11
128.99899999999991
 21
210.154
 31
0.0
  0
LINE
  5
2C6
  8
0
 62
     7
 10
128.99899999999991
 20
210.154
 30
0.0
 11
128.98899999999989
 21
210.21000000000001
 31
0.0
  0
LINE
  5
2C7
  8
0
 62
     7
 10
128.98899999999989
 20
210.21000000000001
 30
0.0
 11
128.97799999999989
 21
210.26599999999991
 31
0.0
  0
LINE
  5
2C8
  8
0
 62
     7
 10
128.97799999999989
 20
210.26599999999991
 30
0.0
 11
128.96499999999989
 21
210.32199999999989
 31
0.0
  0
LINE
  5
2C9
  8
0
 62
     7
 10
128.96499999999989
 20
210.32199999999989
 30
0.0
 11
128.953
 21
210.3769999999999
 31
0.0
  0
LINE
  5
2CA
  8
0
 62
     7
 10
128.953
 20
210.3769999999999
 30
0.0
 11
128.94
 21
210.43299999999999
 31
0.0
  0
LINE
  5
2CB
  8
0
 62
     7
 10
128.94
 20
210.43299999999999
 30
0.0
 11
128.92500000000001
 21
210.49299999999991
 31
0.0
  0
LINE
  5
2CC
  8
0
 62
     7
 10
128.92500000000001
 20
210.49299999999991
 30
0.0
 11
128.90799999999999
 21
210.55399999999989
 31
0.0
  0
LINE
  5
2CD
  8
0
 62
     7
 10
128.90799999999999
 20
210.55399999999989
 30
0.0
 11
128.89099999999999
 21
210.6149999999999
 31
0.0
  0
LINE
  5
2CE
  8
0
 62
     7
 10
128.89099999999999
 20
210.6149999999999
 30
0.0
 11
128.87399999999991
 21
210.67500000000001
 31
0.0
  0
LINE
  5
2CF
  8
0
 62
     7
 10
128.87399999999991
 20
210.67500000000001
 30
0.0
 11
128.85599999999991
 21
210.73500000000001
 31
0.0
  0
LINE
  5
2D0
  8
0
 62
     7
 10
128.85599999999991
 20
210.73500000000001
 30
0.0
 11
128.83600000000001
 21
210.7949999999999
 31
0.0
  0
LINE
  5
2D1
  8
0
 62
     7
 10
128.83600000000001
 20
210.7949999999999
 30
0.0
 11
128.81700000000001
 21
210.85499999999999
 31
0.0
  0
LINE
  5
2D2
  8
0
 62
     7
 10
128.81700000000001
 20
210.85499999999999
 30
0.0
 11
128.797
 21
210.91499999999999
 31
0.0
  0
LINE
  5
2D3
  8
0
 62
     7
 10
128.797
 20
210.91499999999999
 30
0.0
 11
128.77600000000001
 21
210.97499999999999
 31
0.0
  0
LINE
  5
2D4
  8
0
 62
     7
 10
128.77600000000001
 20
210.97499999999999
 30
0.0
 11
128.75499999999991
 21
211.03399999999999
 31
0.0
  0
LINE
  5
2D5
  8
0
 62
     7
 10
128.75499999999991
 20
211.03399999999999
 30
0.0
 11
128.73400000000001
 21
211.0929999999999
 31
0.0
  0
LINE
  5
2D6
  8
0
 62
     7
 10
128.73400000000001
 20
211.0929999999999
 30
0.0
 11
128.71199999999999
 21
211.15199999999999
 31
0.0
  0
LINE
  5
2D7
  8
0
 62
     7
 10
128.71199999999999
 20
211.15199999999999
 30
0.0
 11
128.68999999999991
 21
211.2119999999999
 31
0.0
  0
LINE
  5
2D8
  8
0
 62
     7
 10
128.68999999999991
 20
211.2119999999999
 30
0.0
 11
128.66699999999989
 21
211.27000000000001
 31
0.0
  0
LINE
  5
2D9
  8
0
 62
     7
 10
128.66699999999989
 20
211.27000000000001
 30
0.0
 11
128.64400000000001
 21
211.32900000000001
 31
0.0
  0
LINE
  5
2DA
  8
0
 62
     7
 10
128.64400000000001
 20
211.32900000000001
 30
0.0
 11
128.62100000000001
 21
211.38799999999989
 31
0.0
  0
LINE
  5
2DB
  8
0
 62
     7
 10
128.62100000000001
 20
211.38799999999989
 30
0.0
 11
128.5979999999999
 21
211.446
 31
0.0
  0
LINE
  5
2DC
  8
0
 62
     7
 10
128.5979999999999
 20
211.446
 30
0.0
 11
128.5749999999999
 21
211.505
 31
0.0
  0
LINE
  5
2DD
  8
0
 62
     7
 10
128.5749999999999
 20
211.505
 30
0.0
 11
128.55199999999999
 21
211.5629999999999
 31
0.0
  0
LINE
  5
2DE
  8
0
 62
     7
 10
128.55199999999999
 20
211.5629999999999
 30
0.0
 11
128.52799999999991
 21
211.6209999999999
 31
0.0
  0
LINE
  5
2DF
  8
0
 62
     7
 10
128.52799999999991
 20
211.6209999999999
 30
0.0
 11
128.506
 21
211.67899999999989
 31
0.0
  0
LINE
  5
2E0
  8
0
 62
     7
 10
128.506
 20
211.67899999999989
 30
0.0
 11
128.482
 21
211.73799999999989
 31
0.0
  0
LINE
  5
2E1
  8
0
 62
     7
 10
128.482
 20
211.73799999999989
 30
0.0
 11
128.459
 21
211.79599999999999
 31
0.0
  0
LINE
  5
2E2
  8
0
 62
     7
 10
128.459
 20
211.79599999999999
 30
0.0
 11
128.43600000000001
 21
211.85400000000001
 31
0.0
  0
LINE
  5
2E3
  8
0
 62
     7
 10
128.43600000000001
 20
211.85400000000001
 30
0.0
 11
128.4129999999999
 21
211.9129999999999
 31
0.0
  0
LINE
  5
2E4
  8
0
 62
     7
 10
128.4129999999999
 20
211.9129999999999
 30
0.0
 11
128.39099999999991
 21
211.97099999999989
 31
0.0
  0
LINE
  5
2E5
  8
0
 62
     7
 10
128.39099999999991
 20
211.97099999999989
 30
0.0
 11
128.36899999999989
 21
212.029
 31
0.0
  0
LINE
  5
2E6
  8
0
 62
     7
 10
128.36899999999989
 20
212.029
 30
0.0
 11
128.34700000000001
 21
212.08799999999999
 31
0.0
  0
LINE
  5
2E7
  8
0
 62
     7
 10
128.34700000000001
 20
212.08799999999999
 30
0.0
 11
128.32599999999999
 21
212.14699999999999
 31
0.0
  0
LINE
  5
2E8
  8
0
 62
     7
 10
128.32599999999999
 20
212.14699999999999
 30
0.0
 11
128.30500000000001
 21
212.2059999999999
 31
0.0
  0
LINE
  5
2E9
  8
0
 62
     7
 10
128.30500000000001
 20
212.2059999999999
 30
0.0
 11
128.285
 21
212.2649999999999
 31
0.0
  0
LINE
  5
2EA
  8
0
 62
     7
 10
128.285
 20
212.2649999999999
 30
0.0
 11
128.2649999999999
 21
212.32499999999999
 31
0.0
  0
LINE
  5
2EB
  8
0
 62
     7
 10
128.2649999999999
 20
212.32499999999999
 30
0.0
 11
128.24600000000001
 21
212.38399999999999
 31
0.0
  0
LINE
  5
2EC
  8
0
 62
     7
 10
128.24600000000001
 20
212.38399999999999
 30
0.0
 11
128.227
 21
212.44499999999991
 31
0.0
  0
LINE
  5
2ED
  8
0
 62
     7
 10
128.227
 20
212.44499999999991
 30
0.0
 11
128.20899999999989
 21
212.50399999999999
 31
0.0
  0
LINE
  5
2EE
  8
0
 62
     7
 10
128.20899999999989
 20
212.50399999999999
 30
0.0
 11
128.19200000000001
 21
212.56499999999991
 31
0.0
  0
LINE
  5
2EF
  8
0
 62
     7
 10
128.19200000000001
 20
212.56499999999991
 30
0.0
 11
128.17500000000001
 21
212.625
 31
0.0
  0
LINE
  5
2F0
  8
0
 62
     7
 10
128.17500000000001
 20
212.625
 30
0.0
 11
128.15899999999999
 21
212.68599999999989
 31
0.0
  0
LINE
  5
2F1
  8
0
 62
     7
 10
128.15899999999999
 20
212.68599999999989
 30
0.0
 11
128.143
 21
212.74700000000001
 31
0.0
  0
LINE
  5
2F2
  8
0
 62
     7
 10
128.143
 20
212.74700000000001
 30
0.0
 11
128.1279999999999
 21
212.80799999999991
 31
0.0
  0
LINE
  5
2F3
  8
0
 62
     7
 10
128.1279999999999
 20
212.80799999999991
 30
0.0
 11
128.113
 21
212.869
 31
0.0
  0
LINE
  5
2F4
  8
0
 62
     7
 10
128.113
 20
212.869
 30
0.0
 11
128.0979999999999
 21
212.93000000000001
 31
0.0
  0
LINE
  5
2F5
  8
0
 62
     7
 10
128.0979999999999
 20
212.93000000000001
 30
0.0
 11
128.08500000000001
 21
212.9909999999999
 31
0.0
  0
LINE
  5
2F6
  8
0
 62
     7
 10
128.08500000000001
 20
212.9909999999999
 30
0.0
 11
128.072
 21
213.05299999999991
 31
0.0
  0
LINE
  5
2F7
  8
0
 62
     7
 10
128.072
 20
213.05299999999991
 30
0.0
 11
128.05799999999999
 21
213.114
 31
0.0
  0
LINE
  5
2F8
  8
0
 62
     7
 10
128.05799999999999
 20
213.114
 30
0.0
 11
128.04599999999991
 21
213.1759999999999
 31
0.0
  0
LINE
  5
2F9
  8
0
 62
     7
 10
128.04599999999991
 20
213.1759999999999
 30
0.0
 11
128.03399999999999
 21
213.23699999999991
 31
0.0
  0
LINE
  5
2FA
  8
0
 62
     7
 10
128.03399999999999
 20
213.23699999999991
 30
0.0
 11
128.02199999999999
 21
213.29899999999989
 31
0.0
  0
LINE
  5
2FB
  8
0
 62
     7
 10
115.81399999999989
 20
203.53399999999999
 30
0.0
 11
115.81
 21
203.60400000000001
 31
0.0
  0
LINE
  5
2FC
  8
0
 62
     7
 10
115.81
 20
203.60400000000001
 30
0.0
 11
115.79899999999989
 21
203.67399999999989
 31
0.0
  0
LINE
  5
2FD
  8
0
 62
     7
 10
115.79899999999989
 20
203.67399999999989
 30
0.0
 11
115.779
 21
203.74299999999999
 31
0.0
  0
LINE
  5
2FE
  8
0
 62
     7
 10
115.779
 20
203.74299999999999
 30
0.0
 11
115.754
 21
203.81
 31
0.0
  0
LINE
  5
2FF
  8
0
 62
     7
 10
115.754
 20
203.81
 30
0.0
 11
115.72
 21
203.87499999999989
 31
0.0
  0
LINE
  5
300
  8
0
 62
     7
 10
115.72
 20
203.87499999999989
 30
0.0
 11
115.68000000000001
 21
203.93700000000001
 31
0.0
  0
LINE
  5
301
  8
0
 62
     7
 10
115.68000000000001
 20
203.93700000000001
 30
0.0
 11
115.633
 21
203.9959999999999
 31
0.0
  0
LINE
  5
302
  8
0
 62
     7
 10
115.633
 20
203.9959999999999
 30
0.0
 11
115.5799999999999
 21
204.05299999999991
 31
0.0
  0
LINE
  5
303
  8
0
 62
     7
 10
115.5799999999999
 20
204.05299999999991
 30
0.0
 11
115.52200000000001
 21
204.1049999999999
 31
0.0
  0
LINE
  5
304
  8
0
 62
     7
 10
115.52200000000001
 20
204.1049999999999
 30
0.0
 11
115.45699999999999
 21
204.15199999999999
 31
0.0
  0
LINE
  5
305
  8
0
 62
     7
 10
115.45699999999999
 20
204.15199999999999
 30
0.0
 11
115.38800000000001
 21
204.19499999999991
 31
0.0
  0
LINE
  5
306
  8
0
 62
     7
 10
115.38800000000001
 20
204.19499999999991
 30
0.0
 11
115.3149999999999
 21
204.233
 31
0.0
  0
LINE
  5
307
  8
0
 62
     7
 10
115.3149999999999
 20
204.233
 30
0.0
 11
115.23699999999999
 21
204.26499999999999
 31
0.0
  0
LINE
  5
308
  8
0
 62
     7
 10
115.23699999999999
 20
204.26499999999999
 30
0.0
 11
115.157
 21
204.292
 31
0.0
  0
LINE
  5
309
  8
0
 62
     7
 10
115.157
 20
204.292
 30
0.0
 11
115.074
 21
204.31299999999999
 31
0.0
  0
LINE
  5
30A
  8
0
 62
     7
 10
115.074
 20
204.31299999999999
 30
0.0
 11
114.9889999999999
 21
204.32900000000001
 31
0.0
  0
LINE
  5
30B
  8
0
 62
     7
 10
114.9889999999999
 20
204.32900000000001
 30
0.0
 11
114.9019999999999
 21
204.33699999999999
 31
0.0
  0
LINE
  5
30C
  8
0
 62
     7
 10
114.9019999999999
 20
204.33699999999999
 30
0.0
 11
114.815
 21
204.34099999999989
 31
0.0
  0
LINE
  5
30D
  8
0
 62
     7
 10
114.815
 20
204.34099999999989
 30
0.0
 11
114.72799999999999
 21
204.33699999999999
 31
0.0
  0
LINE
  5
30E
  8
0
 62
     7
 10
114.72799999999999
 20
204.33699999999999
 30
0.0
 11
114.642
 21
204.32900000000001
 31
0.0
  0
LINE
  5
30F
  8
0
 62
     7
 10
114.642
 20
204.32900000000001
 30
0.0
 11
114.5569999999999
 21
204.31299999999999
 31
0.0
  0
LINE
  5
310
  8
0
 62
     7
 10
114.5569999999999
 20
204.31299999999999
 30
0.0
 11
114.4739999999999
 21
204.292
 31
0.0
  0
LINE
  5
311
  8
0
 62
     7
 10
114.4739999999999
 20
204.292
 30
0.0
 11
114.3929999999999
 21
204.26499999999999
 31
0.0
  0
LINE
  5
312
  8
0
 62
     7
 10
114.3929999999999
 20
204.26499999999999
 30
0.0
 11
114.3159999999999
 21
204.233
 31
0.0
  0
LINE
  5
313
  8
0
 62
     7
 10
114.3159999999999
 20
204.233
 30
0.0
 11
114.24299999999999
 21
204.19499999999991
 31
0.0
  0
LINE
  5
314
  8
0
 62
     7
 10
114.24299999999999
 20
204.19499999999991
 30
0.0
 11
114.17399999999989
 21
204.15199999999999
 31
0.0
  0
LINE
  5
315
  8
0
 62
     7
 10
114.17399999999989
 20
204.15199999999999
 30
0.0
 11
114.11
 21
204.1049999999999
 31
0.0
  0
LINE
  5
316
  8
0
 62
     7
 10
114.11
 20
204.1049999999999
 30
0.0
 11
114.051
 21
204.05299999999991
 31
0.0
  0
LINE
  5
317
  8
0
 62
     7
 10
114.051
 20
204.05299999999991
 30
0.0
 11
113.99799999999991
 21
203.9959999999999
 31
0.0
  0
LINE
  5
318
  8
0
 62
     7
 10
113.99799999999991
 20
203.9959999999999
 30
0.0
 11
113.95099999999999
 21
203.93700000000001
 31
0.0
  0
LINE
  5
319
  8
0
 62
     7
 10
113.95099999999999
 20
203.93700000000001
 30
0.0
 11
113.91
 21
203.87499999999989
 31
0.0
  0
LINE
  5
31A
  8
0
 62
     7
 10
113.91
 20
203.87499999999989
 30
0.0
 11
113.877
 21
203.81
 31
0.0
  0
LINE
  5
31B
  8
0
 62
     7
 10
113.877
 20
203.81
 30
0.0
 11
113.8509999999999
 21
203.74299999999999
 31
0.0
  0
LINE
  5
31C
  8
0
 62
     7
 10
113.8509999999999
 20
203.74299999999999
 30
0.0
 11
113.83199999999989
 21
203.67399999999989
 31
0.0
  0
LINE
  5
31D
  8
0
 62
     7
 10
113.83199999999989
 20
203.67399999999989
 30
0.0
 11
113.8209999999999
 21
203.60400000000001
 31
0.0
  0
LINE
  5
31E
  8
0
 62
     7
 10
113.8209999999999
 20
203.60400000000001
 30
0.0
 11
113.81699999999999
 21
203.53399999999999
 31
0.0
  0
LINE
  5
31F
  8
0
 62
     7
 10
113.81699999999999
 20
203.53399999999999
 30
0.0
 11
113.8209999999999
 21
203.46299999999991
 31
0.0
  0
LINE
  5
320
  8
0
 62
     7
 10
113.8209999999999
 20
203.46299999999991
 30
0.0
 11
113.83199999999989
 21
203.39400000000001
 31
0.0
  0
LINE
  5
321
  8
0
 62
     7
 10
113.83199999999989
 20
203.39400000000001
 30
0.0
 11
113.8509999999999
 21
203.3249999999999
 31
0.0
  0
LINE
  5
322
  8
0
 62
     7
 10
113.8509999999999
 20
203.3249999999999
 30
0.0
 11
113.877
 21
203.2579999999999
 31
0.0
  0
LINE
  5
323
  8
0
 62
     7
 10
113.877
 20
203.2579999999999
 30
0.0
 11
113.91
 21
203.19300000000001
 31
0.0
  0
LINE
  5
324
  8
0
 62
     7
 10
113.91
 20
203.19300000000001
 30
0.0
 11
113.95099999999999
 21
203.12999999999991
 31
0.0
  0
LINE
  5
325
  8
0
 62
     7
 10
113.95099999999999
 20
203.12999999999991
 30
0.0
 11
113.99799999999991
 21
203.071
 31
0.0
  0
LINE
  5
326
  8
0
 62
     7
 10
113.99799999999991
 20
203.071
 30
0.0
 11
114.051
 21
203.0149999999999
 31
0.0
  0
LINE
  5
327
  8
0
 62
     7
 10
114.051
 20
203.0149999999999
 30
0.0
 11
114.11
 21
202.964
 31
0.0
  0
LINE
  5
328
  8
0
 62
     7
 10
114.11
 20
202.964
 30
0.0
 11
114.17399999999989
 21
202.916
 31
0.0
  0
LINE
  5
329
  8
0
 62
     7
 10
114.17399999999989
 20
202.916
 30
0.0
 11
114.24299999999999
 21
202.87299999999991
 31
0.0
  0
LINE
  5
32A
  8
0
 62
     7
 10
114.24299999999999
 20
202.87299999999991
 30
0.0
 11
114.3159999999999
 21
202.83500000000001
 31
0.0
  0
LINE
  5
32B
  8
0
 62
     7
 10
114.3159999999999
 20
202.83500000000001
 30
0.0
 11
114.3929999999999
 21
202.803
 31
0.0
  0
LINE
  5
32C
  8
0
 62
     7
 10
114.3929999999999
 20
202.803
 30
0.0
 11
114.4739999999999
 21
202.7759999999999
 31
0.0
  0
LINE
  5
32D
  8
0
 62
     7
 10
114.4739999999999
 20
202.7759999999999
 30
0.0
 11
114.5569999999999
 21
202.755
 31
0.0
  0
LINE
  5
32E
  8
0
 62
     7
 10
114.5569999999999
 20
202.755
 30
0.0
 11
114.642
 21
202.739
 31
0.0
  0
LINE
  5
32F
  8
0
 62
     7
 10
114.642
 20
202.739
 30
0.0
 11
114.72799999999999
 21
202.7299999999999
 31
0.0
  0
LINE
  5
330
  8
0
 62
     7
 10
114.72799999999999
 20
202.7299999999999
 30
0.0
 11
114.815
 21
202.727
 31
0.0
  0
LINE
  5
331
  8
0
 62
     7
 10
114.815
 20
202.727
 30
0.0
 11
114.9019999999999
 21
202.7299999999999
 31
0.0
  0
LINE
  5
332
  8
0
 62
     7
 10
114.9019999999999
 20
202.7299999999999
 30
0.0
 11
114.9889999999999
 21
202.739
 31
0.0
  0
LINE
  5
333
  8
0
 62
     7
 10
114.9889999999999
 20
202.739
 30
0.0
 11
115.074
 21
202.755
 31
0.0
  0
LINE
  5
334
  8
0
 62
     7
 10
115.074
 20
202.755
 30
0.0
 11
115.157
 21
202.7759999999999
 31
0.0
  0
LINE
  5
335
  8
0
 62
     7
 10
115.157
 20
202.7759999999999
 30
0.0
 11
115.23699999999999
 21
202.803
 31
0.0
  0
LINE
  5
336
  8
0
 62
     7
 10
115.23699999999999
 20
202.803
 30
0.0
 11
115.3149999999999
 21
202.83500000000001
 31
0.0
  0
LINE
  5
337
  8
0
 62
     7
 10
115.3149999999999
 20
202.83500000000001
 30
0.0
 11
115.38800000000001
 21
202.87299999999991
 31
0.0
  0
LINE
  5
338
  8
0
 62
     7
 10
115.38800000000001
 20
202.87299999999991
 30
0.0
 11
115.45699999999999
 21
202.916
 31
0.0
  0
LINE
  5
339
  8
0
 62
     7
 10
115.45699999999999
 20
202.916
 30
0.0
 11
115.52200000000001
 21
202.964
 31
0.0
  0
LINE
  5
33A
  8
0
 62
     7
 10
115.52200000000001
 20
202.964
 30
0.0
 11
115.5799999999999
 21
203.0149999999999
 31
0.0
  0
LINE
  5
33B
  8
0
 62
     7
 10
115.5799999999999
 20
203.0149999999999
 30
0.0
 11
115.633
 21
203.071
 31
0.0
  0
LINE
  5
33C
  8
0
 62
     7
 10
115.633
 20
203.071
 30
0.0
 11
115.68000000000001
 21
203.12999999999991
 31
0.0
  0
LINE
  5
33D
  8
0
 62
     7
 10
115.68000000000001
 20
203.12999999999991
 30
0.0
 11
115.72
 21
203.19300000000001
 31
0.0
  0
LINE
  5
33E
  8
0
 62
     7
 10
115.72
 20
203.19300000000001
 30
0.0
 11
115.754
 21
203.2579999999999
 31
0.0
  0
LINE
  5
33F
  8
0
 62
     7
 10
115.754
 20
203.2579999999999
 30
0.0
 11
115.779
 21
203.3249999999999
 31
0.0
  0
LINE
  5
340
  8
0
 62
     7
 10
115.779
 20
203.3249999999999
 30
0.0
 11
115.79899999999989
 21
203.39400000000001
 31
0.0
  0
LINE
  5
341
  8
0
 62
     7
 10
115.79899999999989
 20
203.39400000000001
 30
0.0
 11
115.81
 21
203.46299999999991
 31
0.0
  0
LINE
  5
342
  8
0
 62
     7
 10
115.81
 20
203.46299999999991
 30
0.0
 11
115.81399999999989
 21
203.53399999999999
 31
0.0
  0
LINE
  5
343
  8
0
 62
     7
 10
114.815
 20
205.72499999999991
 30
0.0
 11
114.9019999999999
 21
205.73099999999999
 31
0.0
  0
LINE
  5
344
  8
0
 62
     7
 10
114.9019999999999
 20
205.73099999999999
 30
0.0
 11
114.9889999999999
 21
205.74799999999991
 31
0.0
  0
LINE
  5
345
  8
0
 62
     7
 10
114.9889999999999
 20
205.74799999999991
 30
0.0
 11
115.074
 21
205.77600000000001
 31
0.0
  0
LINE
  5
346
  8
0
 62
     7
 10
115.074
 20
205.77600000000001
 30
0.0
 11
115.157
 21
205.81499999999991
 31
0.0
  0
LINE
  5
347
  8
0
 62
     7
 10
115.157
 20
205.81499999999991
 30
0.0
 11
115.23699999999999
 21
205.8659999999999
 31
0.0
  0
LINE
  5
348
  8
0
 62
     7
 10
115.23699999999999
 20
205.8659999999999
 30
0.0
 11
115.3149999999999
 21
205.92599999999999
 31
0.0
  0
LINE
  5
349
  8
0
 62
     7
 10
115.3149999999999
 20
205.92599999999999
 30
0.0
 11
115.38800000000001
 21
205.9959999999999
 31
0.0
  0
LINE
  5
34A
  8
0
 62
     7
 10
115.38800000000001
 20
205.9959999999999
 30
0.0
 11
115.45699999999999
 21
206.07599999999999
 31
0.0
  0
LINE
  5
34B
  8
0
 62
     7
 10
115.45699999999999
 20
206.07599999999999
 30
0.0
 11
115.52200000000001
 21
206.16399999999999
 31
0.0
  0
LINE
  5
34C
  8
0
 62
     7
 10
115.52200000000001
 20
206.16399999999999
 30
0.0
 11
115.5799999999999
 21
206.25999999999991
 31
0.0
  0
LINE
  5
34D
  8
0
 62
     7
 10
115.5799999999999
 20
206.25999999999991
 30
0.0
 11
115.633
 21
206.36399999999989
 31
0.0
  0
LINE
  5
34E
  8
0
 62
     7
 10
115.633
 20
206.36399999999989
 30
0.0
 11
115.68000000000001
 21
206.47399999999999
 31
0.0
  0
LINE
  5
34F
  8
0
 62
     7
 10
115.68000000000001
 20
206.47399999999999
 30
0.0
 11
115.72
 21
206.59
 31
0.0
  0
LINE
  5
350
  8
0
 62
     7
 10
115.72
 20
206.59
 30
0.0
 11
115.754
 21
206.71100000000001
 31
0.0
  0
LINE
  5
351
  8
0
 62
     7
 10
115.754
 20
206.71100000000001
 30
0.0
 11
115.779
 21
206.83500000000001
 31
0.0
  0
LINE
  5
352
  8
0
 62
     7
 10
115.779
 20
206.83500000000001
 30
0.0
 11
115.79899999999989
 21
206.96299999999999
 31
0.0
  0
LINE
  5
353
  8
0
 62
     7
 10
115.79899999999989
 20
206.96299999999999
 30
0.0
 11
115.81
 21
207.0929999999999
 31
0.0
  0
LINE
  5
354
  8
0
 62
     7
 10
115.81
 20
207.0929999999999
 30
0.0
 11
115.81399999999989
 21
207.2229999999999
 31
0.0
  0
LINE
  5
355
  8
0
 62
     7
 10
115.81399999999989
 20
207.2229999999999
 30
0.0
 11
115.81
 21
207.35299999999989
 31
0.0
  0
LINE
  5
356
  8
0
 62
     7
 10
115.81
 20
207.35299999999989
 30
0.0
 11
115.79899999999989
 21
207.48299999999989
 31
0.0
  0
LINE
  5
357
  8
0
 62
     7
 10
115.79899999999989
 20
207.48299999999989
 30
0.0
 11
115.779
 21
207.6109999999999
 31
0.0
  0
LINE
  5
358
  8
0
 62
     7
 10
115.779
 20
207.6109999999999
 30
0.0
 11
115.754
 21
207.73500000000001
 31
0.0
  0
LINE
  5
359
  8
0
 62
     7
 10
115.754
 20
207.73500000000001
 30
0.0
 11
115.72
 21
207.85599999999991
 31
0.0
  0
LINE
  5
35A
  8
0
 62
     7
 10
115.72
 20
207.85599999999991
 30
0.0
 11
115.68000000000001
 21
207.97200000000001
 31
0.0
  0
LINE
  5
35B
  8
0
 62
     7
 10
115.68000000000001
 20
207.97200000000001
 30
0.0
 11
115.633
 21
208.08199999999999
 31
0.0
  0
LINE
  5
35C
  8
0
 62
     7
 10
115.633
 20
208.08199999999999
 30
0.0
 11
115.5799999999999
 21
208.18599999999989
 31
0.0
  0
LINE
  5
35D
  8
0
 62
     7
 10
115.5799999999999
 20
208.18599999999989
 30
0.0
 11
115.52200000000001
 21
208.28200000000001
 31
0.0
  0
LINE
  5
35E
  8
0
 62
     7
 10
115.52200000000001
 20
208.28200000000001
 30
0.0
 11
115.45699999999999
 21
208.36999999999989
 31
0.0
  0
LINE
  5
35F
  8
0
 62
     7
 10
115.45699999999999
 20
208.36999999999989
 30
0.0
 11
115.38800000000001
 21
208.4499999999999
 31
0.0
  0
LINE
  5
360
  8
0
 62
     7
 10
115.38800000000001
 20
208.4499999999999
 30
0.0
 11
115.3149999999999
 21
208.5199999999999
 31
0.0
  0
LINE
  5
361
  8
0
 62
     7
 10
115.3149999999999
 20
208.5199999999999
 30
0.0
 11
115.23699999999999
 21
208.58000000000001
 31
0.0
  0
LINE
  5
362
  8
0
 62
     7
 10
115.23699999999999
 20
208.58000000000001
 30
0.0
 11
115.157
 21
208.63
 31
0.0
  0
LINE
  5
363
  8
0
 62
     7
 10
115.157
 20
208.63
 30
0.0
 11
115.074
 21
208.6689999999999
 31
0.0
  0
LINE
  5
364
  8
0
 62
     7
 10
115.074
 20
208.6689999999999
 30
0.0
 11
114.9889999999999
 21
208.69799999999989
 31
0.0
  0
LINE
  5
365
  8
0
 62
     7
 10
114.9889999999999
 20
208.69799999999989
 30
0.0
 11
114.9019999999999
 21
208.715
 31
0.0
  0
LINE
  5
366
  8
0
 62
     7
 10
114.9019999999999
 20
208.715
 30
0.0
 11
114.815
 21
208.72
 31
0.0
  0
LINE
  5
367
  8
0
 62
     7
 10
114.815
 20
208.72
 30
0.0
 11
114.72799999999999
 21
208.715
 31
0.0
  0
LINE
  5
368
  8
0
 62
     7
 10
114.72799999999999
 20
208.715
 30
0.0
 11
114.642
 21
208.69799999999989
 31
0.0
  0
LINE
  5
369
  8
0
 62
     7
 10
114.642
 20
208.69799999999989
 30
0.0
 11
114.5569999999999
 21
208.6689999999999
 31
0.0
  0
LINE
  5
36A
  8
0
 62
     7
 10
114.5569999999999
 20
208.6689999999999
 30
0.0
 11
114.4739999999999
 21
208.63
 31
0.0
  0
LINE
  5
36B
  8
0
 62
     7
 10
114.4739999999999
 20
208.63
 30
0.0
 11
114.3929999999999
 21
208.58000000000001
 31
0.0
  0
LINE
  5
36C
  8
0
 62
     7
 10
114.3929999999999
 20
208.58000000000001
 30
0.0
 11
114.3159999999999
 21
208.5199999999999
 31
0.0
  0
LINE
  5
36D
  8
0
 62
     7
 10
114.3159999999999
 20
208.5199999999999
 30
0.0
 11
114.24299999999999
 21
208.4499999999999
 31
0.0
  0
LINE
  5
36E
  8
0
 62
     7
 10
114.24299999999999
 20
208.4499999999999
 30
0.0
 11
114.17399999999989
 21
208.36999999999989
 31
0.0
  0
LINE
  5
36F
  8
0
 62
     7
 10
114.17399999999989
 20
208.36999999999989
 30
0.0
 11
114.11
 21
208.28200000000001
 31
0.0
  0
LINE
  5
370
  8
0
 62
     7
 10
114.11
 20
208.28200000000001
 30
0.0
 11
114.051
 21
208.18599999999989
 31
0.0
  0
LINE
  5
371
  8
0
 62
     7
 10
114.051
 20
208.18599999999989
 30
0.0
 11
113.99799999999991
 21
208.08199999999999
 31
0.0
  0
LINE
  5
372
  8
0
 62
     7
 10
113.99799999999991
 20
208.08199999999999
 30
0.0
 11
113.95099999999999
 21
207.97200000000001
 31
0.0
  0
LINE
  5
373
  8
0
 62
     7
 10
113.95099999999999
 20
207.97200000000001
 30
0.0
 11
113.91
 21
207.85599999999991
 31
0.0
  0
LINE
  5
374
  8
0
 62
     7
 10
113.91
 20
207.85599999999991
 30
0.0
 11
113.877
 21
207.73500000000001
 31
0.0
  0
LINE
  5
375
  8
0
 62
     7
 10
113.877
 20
207.73500000000001
 30
0.0
 11
113.8509999999999
 21
207.6109999999999
 31
0.0
  0
LINE
  5
376
  8
0
 62
     7
 10
113.8509999999999
 20
207.6109999999999
 30
0.0
 11
113.83199999999989
 21
207.48299999999989
 31
0.0
  0
LINE
  5
377
  8
0
 62
     7
 10
113.83199999999989
 20
207.48299999999989
 30
0.0
 11
113.8209999999999
 21
207.35299999999989
 31
0.0
  0
LINE
  5
378
  8
0
 62
     7
 10
113.8209999999999
 20
207.35299999999989
 30
0.0
 11
113.81699999999999
 21
207.2229999999999
 31
0.0
  0
LINE
  5
379
  8
0
 62
     7
 10
113.81699999999999
 20
207.2229999999999
 30
0.0
 11
113.8209999999999
 21
207.0929999999999
 31
0.0
  0
LINE
  5
37A
  8
0
 62
     7
 10
113.8209999999999
 20
207.0929999999999
 30
0.0
 11
113.83199999999989
 21
206.96299999999999
 31
0.0
  0
LINE
  5
37B
  8
0
 62
     7
 10
113.83199999999989
 20
206.96299999999999
 30
0.0
 11
113.8509999999999
 21
206.83500000000001
 31
0.0
  0
LINE
  5
37C
  8
0
 62
     7
 10
113.8509999999999
 20
206.83500000000001
 30
0.0
 11
113.877
 21
206.71100000000001
 31
0.0
  0
LINE
  5
37D
  8
0
 62
     7
 10
113.877
 20
206.71100000000001
 30
0.0
 11
113.91
 21
206.59
 31
0.0
  0
LINE
  5
37E
  8
0
 62
     7
 10
113.91
 20
206.59
 30
0.0
 11
113.95099999999999
 21
206.47399999999999
 31
0.0
  0
LINE
  5
37F
  8
0
 62
     7
 10
113.95099999999999
 20
206.47399999999999
 30
0.0
 11
113.99799999999991
 21
206.36399999999989
 31
0.0
  0
LINE
  5
380
  8
0
 62
     7
 10
113.99799999999991
 20
206.36399999999989
 30
0.0
 11
114.051
 21
206.25999999999991
 31
0.0
  0
LINE
  5
381
  8
0
 62
     7
 10
114.051
 20
206.25999999999991
 30
0.0
 11
114.11
 21
206.16399999999999
 31
0.0
  0
LINE
  5
382
  8
0
 62
     7
 10
114.11
 20
206.16399999999999
 30
0.0
 11
114.17399999999989
 21
206.07599999999999
 31
0.0
  0
LINE
  5
383
  8
0
 62
     7
 10
114.17399999999989
 20
206.07599999999999
 30
0.0
 11
114.24299999999999
 21
205.9959999999999
 31
0.0
  0
LINE
  5
384
  8
0
 62
     7
 10
114.24299999999999
 20
205.9959999999999
 30
0.0
 11
114.3159999999999
 21
205.92599999999999
 31
0.0
  0
LINE
  5
385
  8
0
 62
     7
 10
114.3159999999999
 20
205.92599999999999
 30
0.0
 11
114.3929999999999
 21
205.8659999999999
 31
0.0
  0
LINE
  5
386
  8
0
 62
     7
 10
114.3929999999999
 20
205.8659999999999
 30
0.0
 11
114.4739999999999
 21
205.81499999999991
 31
0.0
  0
LINE
  5
387
  8
0
 62
     7
 10
114.4739999999999
 20
205.81499999999991
 30
0.0
 11
114.5569999999999
 21
205.77600000000001
 31
0.0
  0
LINE
  5
388
  8
0
 62
     7
 10
114.5569999999999
 20
205.77600000000001
 30
0.0
 11
114.642
 21
205.74799999999991
 31
0.0
  0
LINE
  5
389
  8
0
 62
     7
 10
114.642
 20
205.74799999999991
 30
0.0
 11
114.72799999999999
 21
205.73099999999999
 31
0.0
  0
LINE
  5
38A
  8
0
 62
     7
 10
114.72799999999999
 20
205.73099999999999
 30
0.0
 11
114.815
 21
205.72499999999991
 31
0.0
  0
LINE
  5
38B
  8
0
 62
     7
 10
115.81399999999989
 20
210.91199999999989
 30
0.0
 11
115.81
 21
210.982
 31
0.0
  0
LINE
  5
38C
  8
0
 62
     7
 10
115.81
 20
210.982
 30
0.0
 11
115.79899999999989
 21
211.05199999999999
 31
0.0
  0
LINE
  5
38D
  8
0
 62
     7
 10
115.79899999999989
 20
211.05199999999999
 30
0.0
 11
115.779
 21
211.1209999999999
 31
0.0
  0
LINE
  5
38E
  8
0
 62
     7
 10
115.779
 20
211.1209999999999
 30
0.0
 11
115.754
 21
211.1879999999999
 31
0.0
  0
LINE
  5
38F
  8
0
 62
     7
 10
115.754
 20
211.1879999999999
 30
0.0
 11
115.72
 21
211.25299999999999
 31
0.0
  0
LINE
  5
390
  8
0
 62
     7
 10
115.72
 20
211.25299999999999
 30
0.0
 11
115.68000000000001
 21
211.315
 31
0.0
  0
LINE
  5
391
  8
0
 62
     7
 10
115.68000000000001
 20
211.315
 30
0.0
 11
115.633
 21
211.375
 31
0.0
  0
LINE
  5
392
  8
0
 62
     7
 10
115.633
 20
211.375
 30
0.0
 11
115.5799999999999
 21
211.4309999999999
 31
0.0
  0
LINE
  5
393
  8
0
 62
     7
 10
115.5799999999999
 20
211.4309999999999
 30
0.0
 11
115.52200000000001
 21
211.48299999999989
 31
0.0
  0
LINE
  5
394
  8
0
 62
     7
 10
115.52200000000001
 20
211.48299999999989
 30
0.0
 11
115.45699999999999
 21
211.52999999999989
 31
0.0
  0
LINE
  5
395
  8
0
 62
     7
 10
115.45699999999999
 20
211.52999999999989
 30
0.0
 11
115.38800000000001
 21
211.57299999999989
 31
0.0
  0
LINE
  5
396
  8
0
 62
     7
 10
115.38800000000001
 20
211.57299999999989
 30
0.0
 11
115.3149999999999
 21
211.6109999999999
 31
0.0
  0
LINE
  5
397
  8
0
 62
     7
 10
115.3149999999999
 20
211.6109999999999
 30
0.0
 11
115.23699999999999
 21
211.643
 31
0.0
  0
LINE
  5
398
  8
0
 62
     7
 10
115.23699999999999
 20
211.643
 30
0.0
 11
115.157
 21
211.6699999999999
 31
0.0
  0
LINE
  5
399
  8
0
 62
     7
 10
115.157
 20
211.6699999999999
 30
0.0
 11
115.074
 21
211.69099999999989
 31
0.0
  0
LINE
  5
39A
  8
0
 62
     7
 10
115.074
 20
211.69099999999989
 30
0.0
 11
114.9889999999999
 21
211.70699999999999
 31
0.0
  0
LINE
  5
39B
  8
0
 62
     7
 10
114.9889999999999
 20
211.70699999999999
 30
0.0
 11
114.9019999999999
 21
211.71599999999989
 31
0.0
  0
LINE
  5
39C
  8
0
 62
     7
 10
114.9019999999999
 20
211.71599999999989
 30
0.0
 11
114.815
 21
211.71899999999999
 31
0.0
  0
LINE
  5
39D
  8
0
 62
     7
 10
114.815
 20
211.71899999999999
 30
0.0
 11
114.72799999999999
 21
211.71599999999989
 31
0.0
  0
LINE
  5
39E
  8
0
 62
     7
 10
114.72799999999999
 20
211.71599999999989
 30
0.0
 11
114.642
 21
211.70699999999999
 31
0.0
  0
LINE
  5
39F
  8
0
 62
     7
 10
114.642
 20
211.70699999999999
 30
0.0
 11
114.5569999999999
 21
211.69099999999989
 31
0.0
  0
LINE
  5
3A0
  8
0
 62
     7
 10
114.5569999999999
 20
211.69099999999989
 30
0.0
 11
114.4739999999999
 21
211.6699999999999
 31
0.0
  0
LINE
  5
3A1
  8
0
 62
     7
 10
114.4739999999999
 20
211.6699999999999
 30
0.0
 11
114.3929999999999
 21
211.643
 31
0.0
  0
LINE
  5
3A2
  8
0
 62
     7
 10
114.3929999999999
 20
211.643
 30
0.0
 11
114.3159999999999
 21
211.6109999999999
 31
0.0
  0
LINE
  5
3A3
  8
0
 62
     7
 10
114.3159999999999
 20
211.6109999999999
 30
0.0
 11
114.24299999999999
 21
211.57299999999989
 31
0.0
  0
LINE
  5
3A4
  8
0
 62
     7
 10
114.24299999999999
 20
211.57299999999989
 30
0.0
 11
114.17399999999989
 21
211.52999999999989
 31
0.0
  0
LINE
  5
3A5
  8
0
 62
     7
 10
114.17399999999989
 20
211.52999999999989
 30
0.0
 11
114.11
 21
211.48299999999989
 31
0.0
  0
LINE
  5
3A6
  8
0
 62
     7
 10
114.11
 20
211.48299999999989
 30
0.0
 11
114.051
 21
211.4309999999999
 31
0.0
  0
LINE
  5
3A7
  8
0
 62
     7
 10
114.051
 20
211.4309999999999
 30
0.0
 11
113.99799999999991
 21
211.375
 31
0.0
  0
LINE
  5
3A8
  8
0
 62
     7
 10
113.99799999999991
 20
211.375
 30
0.0
 11
113.95099999999999
 21
211.315
 31
0.0
  0
LINE
  5
3A9
  8
0
 62
     7
 10
113.95099999999999
 20
211.315
 30
0.0
 11
113.91
 21
211.25299999999999
 31
0.0
  0
LINE
  5
3AA
  8
0
 62
     7
 10
113.91
 20
211.25299999999999
 30
0.0
 11
113.877
 21
211.1879999999999
 31
0.0
  0
LINE
  5
3AB
  8
0
 62
     7
 10
113.877
 20
211.1879999999999
 30
0.0
 11
113.8509999999999
 21
211.1209999999999
 31
0.0
  0
LINE
  5
3AC
  8
0
 62
     7
 10
113.8509999999999
 20
211.1209999999999
 30
0.0
 11
113.83199999999989
 21
211.05199999999999
 31
0.0
  0
LINE
  5
3AD
  8
0
 62
     7
 10
113.83199999999989
 20
211.05199999999999
 30
0.0
 11
113.8209999999999
 21
210.982
 31
0.0
  0
LINE
  5
3AE
  8
0
 62
     7
 10
113.8209999999999
 20
210.982
 30
0.0
 11
113.81699999999999
 21
210.91199999999989
 31
0.0
  0
LINE
  5
3AF
  8
0
 62
     7
 10
113.81699999999999
 20
210.91199999999989
 30
0.0
 11
113.8209999999999
 21
210.84200000000001
 31
0.0
  0
LINE
  5
3B0
  8
0
 62
     7
 10
113.8209999999999
 20
210.84200000000001
 30
0.0
 11
113.83199999999989
 21
210.77199999999999
 31
0.0
  0
LINE
  5
3B1
  8
0
 62
     7
 10
113.83199999999989
 20
210.77199999999999
 30
0.0
 11
113.8509999999999
 21
210.70299999999989
 31
0.0
  0
LINE
  5
3B2
  8
0
 62
     7
 10
113.8509999999999
 20
210.70299999999989
 30
0.0
 11
113.877
 21
210.636
 31
0.0
  0
LINE
  5
3B3
  8
0
 62
     7
 10
113.877
 20
210.636
 30
0.0
 11
113.91
 21
210.571
 31
0.0
  0
LINE
  5
3B4
  8
0
 62
     7
 10
113.91
 20
210.571
 30
0.0
 11
113.95099999999999
 21
210.50800000000001
 31
0.0
  0
LINE
  5
3B5
  8
0
 62
     7
 10
113.95099999999999
 20
210.50800000000001
 30
0.0
 11
113.99799999999991
 21
210.44900000000001
 31
0.0
  0
LINE
  5
3B6
  8
0
 62
     7
 10
113.99799999999991
 20
210.44900000000001
 30
0.0
 11
114.051
 21
210.393
 31
0.0
  0
LINE
  5
3B7
  8
0
 62
     7
 10
114.051
 20
210.393
 30
0.0
 11
114.11
 21
210.34200000000001
 31
0.0
  0
LINE
  5
3B8
  8
0
 62
     7
 10
114.11
 20
210.34200000000001
 30
0.0
 11
114.17399999999989
 21
210.29400000000001
 31
0.0
  0
LINE
  5
3B9
  8
0
 62
     7
 10
114.17399999999989
 20
210.29400000000001
 30
0.0
 11
114.24299999999999
 21
210.25099999999989
 31
0.0
  0
LINE
  5
3BA
  8
0
 62
     7
 10
114.24299999999999
 20
210.25099999999989
 30
0.0
 11
114.3159999999999
 21
210.21299999999991
 31
0.0
  0
LINE
  5
3BB
  8
0
 62
     7
 10
114.3159999999999
 20
210.21299999999991
 30
0.0
 11
114.3929999999999
 21
210.1809999999999
 31
0.0
  0
LINE
  5
3BC
  8
0
 62
     7
 10
114.3929999999999
 20
210.1809999999999
 30
0.0
 11
114.4739999999999
 21
210.154
 31
0.0
  0
LINE
  5
3BD
  8
0
 62
     7
 10
114.4739999999999
 20
210.154
 30
0.0
 11
114.5569999999999
 21
210.1329999999999
 31
0.0
  0
LINE
  5
3BE
  8
0
 62
     7
 10
114.5569999999999
 20
210.1329999999999
 30
0.0
 11
114.642
 21
210.11699999999999
 31
0.0
  0
LINE
  5
3BF
  8
0
 62
     7
 10
114.642
 20
210.11699999999999
 30
0.0
 11
114.72799999999999
 21
210.108
 31
0.0
  0
LINE
  5
3C0
  8
0
 62
     7
 10
114.72799999999999
 20
210.108
 30
0.0
 11
114.815
 21
210.1049999999999
 31
0.0
  0
LINE
  5
3C1
  8
0
 62
     7
 10
114.815
 20
210.1049999999999
 30
0.0
 11
114.9019999999999
 21
210.108
 31
0.0
  0
LINE
  5
3C2
  8
0
 62
     7
 10
114.9019999999999
 20
210.108
 30
0.0
 11
114.9889999999999
 21
210.11699999999999
 31
0.0
  0
LINE
  5
3C3
  8
0
 62
     7
 10
114.9889999999999
 20
210.11699999999999
 30
0.0
 11
115.074
 21
210.1329999999999
 31
0.0
  0
LINE
  5
3C4
  8
0
 62
     7
 10
115.074
 20
210.1329999999999
 30
0.0
 11
115.157
 21
210.154
 31
0.0
  0
LINE
  5
3C5
  8
0
 62
     7
 10
115.157
 20
210.154
 30
0.0
 11
115.23699999999999
 21
210.1809999999999
 31
0.0
  0
LINE
  5
3C6
  8
0
 62
     7
 10
115.23699999999999
 20
210.1809999999999
 30
0.0
 11
115.3149999999999
 21
210.21299999999991
 31
0.0
  0
LINE
  5
3C7
  8
0
 62
     7
 10
115.3149999999999
 20
210.21299999999991
 30
0.0
 11
115.38800000000001
 21
210.25099999999989
 31
0.0
  0
LINE
  5
3C8
  8
0
 62
     7
 10
115.38800000000001
 20
210.25099999999989
 30
0.0
 11
115.45699999999999
 21
210.29400000000001
 31
0.0
  0
LINE
  5
3C9
  8
0
 62
     7
 10
115.45699999999999
 20
210.29400000000001
 30
0.0
 11
115.52200000000001
 21
210.34200000000001
 31
0.0
  0
LINE
  5
3CA
  8
0
 62
     7
 10
115.52200000000001
 20
210.34200000000001
 30
0.0
 11
115.5799999999999
 21
210.393
 31
0.0
  0
LINE
  5
3CB
  8
0
 62
     7
 10
115.5799999999999
 20
210.393
 30
0.0
 11
115.633
 21
210.44900000000001
 31
0.0
  0
LINE
  5
3CC
  8
0
 62
     7
 10
115.633
 20
210.44900000000001
 30
0.0
 11
115.68000000000001
 21
210.50800000000001
 31
0.0
  0
LINE
  5
3CD
  8
0
 62
     7
 10
115.68000000000001
 20
210.50800000000001
 30
0.0
 11
115.72
 21
210.571
 31
0.0
  0
LINE
  5
3CE
  8
0
 62
     7
 10
115.72
 20
210.571
 30
0.0
 11
115.754
 21
210.636
 31
0.0
  0
LINE
  5
3CF
  8
0
 62
     7
 10
115.754
 20
210.636
 30
0.0
 11
115.779
 21
210.70299999999989
 31
0.0
  0
LINE
  5
3D0
  8
0
 62
     7
 10
115.779
 20
210.70299999999989
 30
0.0
 11
115.79899999999989
 21
210.77199999999999
 31
0.0
  0
LINE
  5
3D1
  8
0
 62
     7
 10
115.79899999999989
 20
210.77199999999999
 30
0.0
 11
115.81
 21
210.84200000000001
 31
0.0
  0
LINE
  5
3D2
  8
0
 62
     7
 10
115.81
 20
210.84200000000001
 30
0.0
 11
115.81399999999989
 21
210.91199999999989
 31
0.0
  0
LINE
  5
3D3
  8
0
 62
     7
 10
119.565
 20
211.363
 30
0.0
 11
119.5359999999999
 21
211.358
 31
0.0
  0
LINE
  5
3D4
  8
0
 62
     7
 10
119.5359999999999
 20
211.358
 30
0.0
 11
119.50700000000001
 21
211.35299999999989
 31
0.0
  0
LINE
  5
3D5
  8
0
 62
     7
 10
119.50700000000001
 20
211.35299999999989
 30
0.0
 11
119.47799999999989
 21
211.34899999999999
 31
0.0
  0
LINE
  5
3D6
  8
0
 62
     7
 10
119.47799999999989
 20
211.34899999999999
 30
0.0
 11
119.449
 21
211.34499999999991
 31
0.0
  0
LINE
  5
3D7
  8
0
 62
     7
 10
119.449
 20
211.34499999999991
 30
0.0
 11
119.42
 21
211.33999999999989
 31
0.0
  0
LINE
  5
3D8
  8
0
 62
     7
 10
119.42
 20
211.33999999999989
 30
0.0
 11
119.39100000000001
 21
211.3359999999999
 31
0.0
  0
LINE
  5
3D9
  8
0
 62
     7
 10
119.39100000000001
 20
211.3359999999999
 30
0.0
 11
119.36199999999999
 21
211.33199999999991
 31
0.0
  0
LINE
  5
3DA
  8
0
 62
     7
 10
119.36199999999999
 20
211.33199999999991
 30
0.0
 11
119.333
 21
211.328
 31
0.0
  0
LINE
  5
3DB
  8
0
 62
     7
 10
119.333
 20
211.328
 30
0.0
 11
119.304
 21
211.32299999999989
 31
0.0
  0
LINE
  5
3DC
  8
0
 62
     7
 10
119.304
 20
211.32299999999989
 30
0.0
 11
119.27499999999991
 21
211.31899999999999
 31
0.0
  0
LINE
  5
3DD
  8
0
 62
     7
 10
119.27499999999991
 20
211.31899999999999
 30
0.0
 11
119.247
 21
211.31599999999989
 31
0.0
  0
LINE
  5
3DE
  8
0
 62
     7
 10
119.247
 20
211.31599999999989
 30
0.0
 11
119.218
 21
211.31200000000001
 31
0.0
  0
LINE
  5
3DF
  8
0
 62
     7
 10
119.218
 20
211.31200000000001
 30
0.0
 11
119.18899999999989
 21
211.30799999999999
 31
0.0
  0
LINE
  5
3E0
  8
0
 62
     7
 10
119.18899999999989
 20
211.30799999999999
 30
0.0
 11
119.16
 21
211.304
 31
0.0
  0
LINE
  5
3E1
  8
0
 62
     7
 10
119.16
 20
211.304
 30
0.0
 11
119.131
 21
211.2999999999999
 31
0.0
  0
LINE
  5
3E2
  8
0
 62
     7
 10
119.131
 20
211.2999999999999
 30
0.0
 11
119.1019999999999
 21
211.29699999999991
 31
0.0
  0
LINE
  5
3E3
  8
0
 62
     7
 10
119.1019999999999
 20
211.29699999999991
 30
0.0
 11
119.0709999999999
 21
211.29299999999989
 31
0.0
  0
LINE
  5
3E4
  8
0
 62
     7
 10
119.0709999999999
 20
211.29299999999989
 30
0.0
 11
119.039
 21
211.28899999999999
 31
0.0
  0
LINE
  5
3E5
  8
0
 62
     7
 10
119.039
 20
211.28899999999999
 30
0.0
 11
119.008
 21
211.28599999999989
 31
0.0
  0
LINE
  5
3E6
  8
0
 62
     7
 10
119.008
 20
211.28599999999989
 30
0.0
 11
118.9759999999999
 21
211.28200000000001
 31
0.0
  0
LINE
  5
3E7
  8
0
 62
     7
 10
118.9759999999999
 20
211.28200000000001
 30
0.0
 11
118.94499999999989
 21
211.27799999999991
 31
0.0
  0
LINE
  5
3E8
  8
0
 62
     7
 10
118.94499999999989
 20
211.27799999999991
 30
0.0
 11
118.914
 21
211.27500000000001
 31
0.0
  0
LINE
  5
3E9
  8
0
 62
     7
 10
118.914
 20
211.27500000000001
 30
0.0
 11
118.883
 21
211.27199999999999
 31
0.0
  0
LINE
  5
3EA
  8
0
 62
     7
 10
118.883
 20
211.27199999999999
 30
0.0
 11
118.852
 21
211.26900000000001
 31
0.0
  0
LINE
  5
3EB
  8
0
 62
     7
 10
118.852
 20
211.26900000000001
 30
0.0
 11
118.81999999999989
 21
211.26599999999991
 31
0.0
  0
LINE
  5
3EC
  8
0
 62
     7
 10
118.81999999999989
 20
211.26599999999991
 30
0.0
 11
118.789
 21
211.26300000000001
 31
0.0
  0
LINE
  5
3ED
  8
0
 62
     7
 10
118.789
 20
211.26300000000001
 30
0.0
 11
118.758
 21
211.25999999999999
 31
0.0
  0
LINE
  5
3EE
  8
0
 62
     7
 10
118.758
 20
211.25999999999999
 30
0.0
 11
118.7259999999999
 21
211.2579999999999
 31
0.0
  0
LINE
  5
3EF
  8
0
 62
     7
 10
118.7259999999999
 20
211.2579999999999
 30
0.0
 11
118.69499999999989
 21
211.255
 31
0.0
  0
LINE
  5
3F0
  8
0
 62
     7
 10
118.69499999999989
 20
211.255
 30
0.0
 11
118.664
 21
211.25299999999999
 31
0.0
  0
LINE
  5
3F1
  8
0
 62
     7
 10
118.664
 20
211.25299999999999
 30
0.0
 11
118.6329999999999
 21
211.25099999999989
 31
0.0
  0
LINE
  5
3F2
  8
0
 62
     7
 10
118.6329999999999
 20
211.25099999999989
 30
0.0
 11
118.601
 21
211.24999999999989
 31
0.0
  0
LINE
  5
3F3
  8
0
 62
     7
 10
118.601
 20
211.24999999999989
 30
0.0
 11
118.566
 21
211.24799999999999
 31
0.0
  0
LINE
  5
3F4
  8
0
 62
     7
 10
118.566
 20
211.24799999999999
 30
0.0
 11
118.53
 21
211.24700000000001
 31
0.0
  0
LINE
  5
3F5
  8
0
 62
     7
 10
118.53
 20
211.24700000000001
 30
0.0
 11
118.495
 21
211.24600000000001
 31
0.0
  0
LINE
  5
3F6
  8
0
 62
     7
 10
118.495
 20
211.24600000000001
 30
0.0
 11
118.45999999999989
 21
211.24499999999989
 31
0.0
  0
LINE
  5
3F7
  8
0
 62
     7
 10
118.45999999999989
 20
211.24499999999989
 30
0.0
 11
118.42399999999989
 21
211.244
 31
0.0
  0
LINE
  5
3F8
  8
0
 62
     7
 10
118.42399999999989
 20
211.244
 30
0.0
 11
118.3889999999999
 21
211.24299999999991
 31
0.0
  0
LINE
  5
3F9
  8
0
 62
     7
 10
118.3889999999999
 20
211.24299999999991
 30
0.0
 11
118.35299999999989
 21
211.24299999999991
 31
0.0
  0
LINE
  5
3FA
  8
0
 62
     7
 10
118.35299999999989
 20
211.24299999999991
 30
0.0
 11
118.3179999999999
 21
211.24199999999999
 31
0.0
  0
LINE
  5
3FB
  8
0
 62
     7
 10
118.3179999999999
 20
211.24199999999999
 30
0.0
 11
118.282
 21
211.24199999999999
 31
0.0
  0
LINE
  5
3FC
  8
0
 62
     7
 10
118.282
 20
211.24199999999999
 30
0.0
 11
118.247
 21
211.24199999999999
 31
0.0
  0
LINE
  5
3FD
  8
0
 62
     7
 10
118.247
 20
211.24199999999999
 30
0.0
 11
118.212
 21
211.2409999999999
 31
0.0
  0
LINE
  5
3FE
  8
0
 62
     7
 10
118.212
 20
211.2409999999999
 30
0.0
 11
118.176
 21
211.2409999999999
 31
0.0
  0
LINE
  5
3FF
  8
0
 62
     7
 10
118.176
 20
211.2409999999999
 30
0.0
 11
118.14100000000001
 21
211.2409999999999
 31
0.0
  0
LINE
  5
400
  8
0
 62
     7
 10
118.14100000000001
 20
211.2409999999999
 30
0.0
 11
118.105
 21
211.2409999999999
 31
0.0
  0
LINE
  5
401
  8
0
 62
     7
 10
118.105
 20
211.2409999999999
 30
0.0
 11
118.06999999999989
 21
211.2409999999999
 31
0.0
  0
LINE
  5
402
  8
0
 62
     7
 10
118.06999999999989
 20
211.2409999999999
 30
0.0
 11
118.035
 21
211.24000000000001
 31
0.0
  0
LINE
  5
403
  8
0
 62
     7
 10
118.035
 20
211.24000000000001
 30
0.0
 11
117.995
 21
211.23899999999989
 31
0.0
  0
LINE
  5
404
  8
0
 62
     7
 10
117.995
 20
211.23899999999989
 30
0.0
 11
117.956
 21
211.23899999999989
 31
0.0
  0
LINE
  5
405
  8
0
 62
     7
 10
117.956
 20
211.23899999999989
 30
0.0
 11
117.917
 21
211.23799999999989
 31
0.0
  0
LINE
  5
406
  8
0
 62
     7
 10
117.917
 20
211.23799999999989
 30
0.0
 11
117.8779999999999
 21
211.23699999999991
 31
0.0
  0
LINE
  5
407
  8
0
 62
     7
 10
117.8779999999999
 20
211.23699999999991
 30
0.0
 11
117.84
 21
211.23500000000001
 31
0.0
  0
LINE
  5
408
  8
0
 62
     7
 10
117.84
 20
211.23500000000001
 30
0.0
 11
117.7999999999999
 21
211.23400000000001
 31
0.0
  0
LINE
  5
409
  8
0
 62
     7
 10
117.7999999999999
 20
211.23400000000001
 30
0.0
 11
117.762
 21
211.233
 31
0.0
  0
LINE
  5
40A
  8
0
 62
     7
 10
117.762
 20
211.233
 30
0.0
 11
117.72199999999999
 21
211.23099999999991
 31
0.0
  0
LINE
  5
40B
  8
0
 62
     7
 10
117.72199999999999
 20
211.23099999999991
 30
0.0
 11
117.684
 21
211.22900000000001
 31
0.0
  0
LINE
  5
40C
  8
0
 62
     7
 10
117.684
 20
211.22900000000001
 30
0.0
 11
117.6449999999999
 21
211.22799999999989
 31
0.0
  0
LINE
  5
40D
  8
0
 62
     7
 10
117.6449999999999
 20
211.22799999999989
 30
0.0
 11
117.60599999999999
 21
211.226
 31
0.0
  0
LINE
  5
40E
  8
0
 62
     7
 10
117.60599999999999
 20
211.226
 30
0.0
 11
117.56699999999989
 21
211.22399999999999
 31
0.0
  0
LINE
  5
40F
  8
0
 62
     7
 10
117.56699999999989
 20
211.22399999999999
 30
0.0
 11
117.52799999999991
 21
211.2229999999999
 31
0.0
  0
LINE
  5
410
  8
0
 62
     7
 10
117.52799999999991
 20
211.2229999999999
 30
0.0
 11
117.4889999999999
 21
211.22
 31
0.0
  0
LINE
  5
411
  8
0
 62
     7
 10
117.4889999999999
 20
211.22
 30
0.0
 11
117.45
 21
211.21899999999999
 31
0.0
  0
LINE
  5
412
  8
0
 62
     7
 10
117.45
 20
211.21899999999999
 30
0.0
 11
117.4109999999999
 21
211.21700000000001
 31
0.0
  0
LINE
  5
413
  8
0
 62
     7
 10
119.6579999999999
 20
198.90199999999999
 30
0.0
 11
119.65900000000001
 21
198.93199999999999
 31
0.0
  0
LINE
  5
414
  8
0
 62
     7
 10
119.65900000000001
 20
198.93199999999999
 30
0.0
 11
119.6609999999999
 21
198.96199999999999
 31
0.0
  0
LINE
  5
415
  8
0
 62
     7
 10
119.6609999999999
 20
198.96199999999999
 30
0.0
 11
119.663
 21
198.99199999999999
 31
0.0
  0
LINE
  5
416
  8
0
 62
     7
 10
119.663
 20
198.99199999999999
 30
0.0
 11
119.66499999999991
 21
199.02199999999999
 31
0.0
  0
LINE
  5
417
  8
0
 62
     7
 10
119.66499999999991
 20
199.02199999999999
 30
0.0
 11
119.66799999999991
 21
199.05099999999999
 31
0.0
  0
LINE
  5
418
  8
0
 62
     7
 10
119.66799999999991
 20
199.05099999999999
 30
0.0
 11
119.67100000000001
 21
199.0809999999999
 31
0.0
  0
LINE
  5
419
  8
0
 62
     7
 10
119.67100000000001
 20
199.0809999999999
 30
0.0
 11
119.67399999999989
 21
199.1109999999999
 31
0.0
  0
LINE
  5
41A
  8
0
 62
     7
 10
119.67399999999989
 20
199.1109999999999
 30
0.0
 11
119.67700000000001
 21
199.14099999999991
 31
0.0
  0
LINE
  5
41B
  8
0
 62
     7
 10
119.67700000000001
 20
199.14099999999991
 30
0.0
 11
119.6809999999999
 21
199.1699999999999
 31
0.0
  0
LINE
  5
41C
  8
0
 62
     7
 10
119.6809999999999
 20
199.1699999999999
 30
0.0
 11
119.6849999999999
 21
199.1999999999999
 31
0.0
  0
LINE
  5
41D
  8
0
 62
     7
 10
119.6849999999999
 20
199.1999999999999
 30
0.0
 11
119.68899999999999
 21
199.22900000000001
 31
0.0
  0
LINE
  5
41E
  8
0
 62
     7
 10
119.68899999999999
 20
199.22900000000001
 30
0.0
 11
119.694
 21
199.25899999999999
 31
0.0
  0
LINE
  5
41F
  8
0
 62
     7
 10
119.694
 20
199.25899999999999
 30
0.0
 11
119.6989999999999
 21
199.2879999999999
 31
0.0
  0
LINE
  5
420
  8
0
 62
     7
 10
119.6989999999999
 20
199.2879999999999
 30
0.0
 11
119.70399999999989
 21
199.3179999999999
 31
0.0
  0
LINE
  5
421
  8
0
 62
     7
 10
119.70399999999989
 20
199.3179999999999
 30
0.0
 11
119.70999999999999
 21
199.34700000000001
 31
0.0
  0
LINE
  5
422
  8
0
 62
     7
 10
119.70999999999999
 20
199.34700000000001
 30
0.0
 11
119.715
 21
199.37599999999989
 31
0.0
  0
LINE
  5
423
  8
0
 62
     7
 10
119.715
 20
199.37599999999989
 30
0.0
 11
119.723
 21
199.40899999999999
 31
0.0
  0
LINE
  5
424
  8
0
 62
     7
 10
119.723
 20
199.40899999999999
 30
0.0
 11
119.73
 21
199.44099999999989
 31
0.0
  0
LINE
  5
425
  8
0
 62
     7
 10
119.73
 20
199.44099999999989
 30
0.0
 11
119.738
 21
199.47399999999999
 31
0.0
  0
LINE
  5
426
  8
0
 62
     7
 10
119.738
 20
199.47399999999999
 30
0.0
 11
119.746
 21
199.50599999999989
 31
0.0
  0
LINE
  5
427
  8
0
 62
     7
 10
119.746
 20
199.50599999999989
 30
0.0
 11
119.75399999999991
 21
199.5379999999999
 31
0.0
  0
LINE
  5
428
  8
0
 62
     7
 10
119.75399999999991
 20
199.5379999999999
 30
0.0
 11
119.76299999999991
 21
199.56999999999999
 31
0.0
  0
LINE
  5
429
  8
0
 62
     7
 10
119.76299999999991
 20
199.56999999999999
 30
0.0
 11
119.77200000000001
 21
199.60299999999989
 31
0.0
  0
LINE
  5
42A
  8
0
 62
     7
 10
119.77200000000001
 20
199.60299999999989
 30
0.0
 11
119.78100000000001
 21
199.63499999999991
 31
0.0
  0
LINE
  5
42B
  8
0
 62
     7
 10
119.78100000000001
 20
199.63499999999991
 30
0.0
 11
119.791
 21
199.667
 31
0.0
  0
LINE
  5
42C
  8
0
 62
     7
 10
119.791
 20
199.667
 30
0.0
 11
119.801
 21
199.69900000000001
 31
0.0
  0
LINE
  5
42D
  8
0
 62
     7
 10
119.801
 20
199.69900000000001
 30
0.0
 11
119.8099999999999
 21
199.73099999999991
 31
0.0
  0
LINE
  5
42E
  8
0
 62
     7
 10
119.8099999999999
 20
199.73099999999991
 30
0.0
 11
119.81999999999989
 21
199.76199999999989
 31
0.0
  0
LINE
  5
42F
  8
0
 62
     7
 10
119.81999999999989
 20
199.76199999999989
 30
0.0
 11
119.82899999999989
 21
199.79400000000001
 31
0.0
  0
LINE
  5
430
  8
0
 62
     7
 10
119.82899999999989
 20
199.79400000000001
 30
0.0
 11
119.839
 21
199.82599999999991
 31
0.0
  0
LINE
  5
431
  8
0
 62
     7
 10
119.839
 20
199.82599999999991
 30
0.0
 11
119.8489999999999
 21
199.858
 31
0.0
  0
LINE
  5
432
  8
0
 62
     7
 10
119.8489999999999
 20
199.858
 30
0.0
 11
119.85899999999999
 21
199.89099999999999
 31
0.0
  0
LINE
  5
433
  8
0
 62
     7
 10
119.85899999999999
 20
199.89099999999999
 30
0.0
 11
119.8679999999999
 21
199.922
 31
0.0
  0
LINE
  5
434
  8
0
 62
     7
 10
119.8679999999999
 20
199.922
 30
0.0
 11
119.8779999999999
 21
199.953
 31
0.0
  0
LINE
  5
435
  8
0
 62
     7
 10
119.8779999999999
 20
199.953
 30
0.0
 11
119.887
 21
199.98400000000001
 31
0.0
  0
LINE
  5
436
  8
0
 62
     7
 10
119.887
 20
199.98400000000001
 30
0.0
 11
119.896
 21
200.01499999999999
 31
0.0
  0
LINE
  5
437
  8
0
 62
     7
 10
119.896
 20
200.01499999999999
 30
0.0
 11
119.9049999999999
 21
200.04599999999991
 31
0.0
  0
LINE
  5
438
  8
0
 62
     7
 10
119.9049999999999
 20
200.04599999999991
 30
0.0
 11
119.914
 21
200.078
 31
0.0
  0
LINE
  5
439
  8
0
 62
     7
 10
119.914
 20
200.078
 30
0.0
 11
119.922
 21
200.10900000000001
 31
0.0
  0
LINE
  5
43A
  8
0
 62
     7
 10
119.922
 20
200.10900000000001
 30
0.0
 11
119.93000000000001
 21
200.1399999999999
 31
0.0
  0
LINE
  5
43B
  8
0
 62
     7
 10
119.93000000000001
 20
200.1399999999999
 30
0.0
 11
119.9379999999999
 21
200.172
 31
0.0
  0
LINE
  5
43C
  8
0
 62
     7
 10
119.9379999999999
 20
200.172
 30
0.0
 11
119.947
 21
200.20299999999989
 31
0.0
  0
LINE
  5
43D
  8
0
 62
     7
 10
119.947
 20
200.20299999999989
 30
0.0
 11
119.955
 21
200.23400000000001
 31
0.0
  0
LINE
  5
43E
  8
0
 62
     7
 10
119.955
 20
200.23400000000001
 30
0.0
 11
119.962
 21
200.26599999999999
 31
0.0
  0
LINE
  5
43F
  8
0
 62
     7
 10
119.962
 20
200.26599999999999
 30
0.0
 11
119.96899999999989
 21
200.29699999999991
 31
0.0
  0
LINE
  5
440
  8
0
 62
     7
 10
119.96899999999989
 20
200.29699999999991
 30
0.0
 11
119.977
 21
200.32900000000001
 31
0.0
  0
LINE
  5
441
  8
0
 62
     7
 10
119.977
 20
200.32900000000001
 30
0.0
 11
119.98399999999999
 21
200.36099999999999
 31
0.0
  0
LINE
  5
442
  8
0
 62
     7
 10
119.98399999999999
 20
200.36099999999999
 30
0.0
 11
119.9899999999999
 21
200.39199999999991
 31
0.0
  0
LINE
  5
443
  8
0
 62
     7
 10
119.9899999999999
 20
200.39199999999991
 30
0.0
 11
119.997
 21
200.423
 31
0.0
  0
LINE
  5
444
  8
0
 62
     7
 10
119.997
 20
200.423
 30
0.0
 11
120.002
 21
200.45500000000001
 31
0.0
  0
LINE
  5
445
  8
0
 62
     7
 10
120.002
 20
200.45500000000001
 30
0.0
 11
120.009
 21
200.4859999999999
 31
0.0
  0
LINE
  5
446
  8
0
 62
     7
 10
120.009
 20
200.4859999999999
 30
0.0
 11
120.0139999999999
 21
200.517
 31
0.0
  0
LINE
  5
447
  8
0
 62
     7
 10
120.0139999999999
 20
200.517
 30
0.0
 11
120.01899999999991
 21
200.54899999999989
 31
0.0
  0
LINE
  5
448
  8
0
 62
     7
 10
120.01899999999991
 20
200.54899999999989
 30
0.0
 11
120.0239999999999
 21
200.58000000000001
 31
0.0
  0
LINE
  5
449
  8
0
 62
     7
 10
120.0239999999999
 20
200.58000000000001
 30
0.0
 11
120.029
 21
200.61099999999999
 31
0.0
  0
LINE
  5
44A
  8
0
 62
     7
 10
120.029
 20
200.61099999999999
 30
0.0
 11
120.0329999999999
 21
200.64299999999989
 31
0.0
  0
LINE
  5
44B
  8
0
 62
     7
 10
120.0329999999999
 20
200.64299999999989
 30
0.0
 11
120.038
 21
200.67400000000001
 31
0.0
  0
LINE
  5
44C
  8
0
 62
     7
 10
120.038
 20
200.67400000000001
 30
0.0
 11
120.042
 21
200.70500000000001
 31
0.0
  0
LINE
  5
44D
  8
0
 62
     7
 10
120.042
 20
200.70500000000001
 30
0.0
 11
120.04600000000001
 21
200.73699999999991
 31
0.0
  0
LINE
  5
44E
  8
0
 62
     7
 10
120.04600000000001
 20
200.73699999999991
 30
0.0
 11
120.04900000000001
 21
200.768
 31
0.0
  0
LINE
  5
44F
  8
0
 62
     7
 10
120.04900000000001
 20
200.768
 30
0.0
 11
120.053
 21
200.80000000000001
 31
0.0
  0
LINE
  5
450
  8
0
 62
     7
 10
120.053
 20
200.80000000000001
 30
0.0
 11
120.056
 21
200.8309999999999
 31
0.0
  0
LINE
  5
451
  8
0
 62
     7
 10
120.056
 20
200.8309999999999
 30
0.0
 11
120.059
 21
200.863
 31
0.0
  0
LINE
  5
452
  8
0
 62
     7
 10
120.059
 20
200.863
 30
0.0
 11
120.062
 21
200.89500000000001
 31
0.0
  0
LINE
  5
453
  8
0
 62
     7
 10
121.10599999999999
 20
213.30099999999999
 30
0.0
 11
121.038
 21
212.983
 31
0.0
  0
LINE
  5
454
  8
0
 62
     7
 10
121.038
 20
212.983
 30
0.0
 11
120.9289999999999
 21
212.6759999999999
 31
0.0
  0
LINE
  5
455
  8
0
 62
     7
 10
120.9289999999999
 20
212.6759999999999
 30
0.0
 11
120.7799999999999
 21
212.386
 31
0.0
  0
LINE
  5
456
  8
0
 62
     7
 10
120.7799999999999
 20
212.386
 30
0.0
 11
120.596
 21
212.11699999999999
 31
0.0
  0
LINE
  5
457
  8
0
 62
     7
 10
120.596
 20
212.11699999999999
 30
0.0
 11
120.377
 21
211.87499999999989
 31
0.0
  0
LINE
  5
458
  8
0
 62
     7
 10
120.377
 20
211.87499999999989
 30
0.0
 11
120.13
 21
211.66599999999991
 31
0.0
  0
LINE
  5
459
  8
0
 62
     7
 10
120.13
 20
211.66599999999991
 30
0.0
 11
119.8579999999999
 21
211.49100000000001
 31
0.0
  0
LINE
  5
45A
  8
0
 62
     7
 10
119.8579999999999
 20
211.49100000000001
 30
0.0
 11
119.56699999999999
 21
211.35599999999999
 31
0.0
  0
ARC
  5
45B
  8
0
 62
     7
 10
128.28006999999991
 20
197.67257799999999
 30
0.0
 40
1.728961999999999
 50
88.141908000000001
 51
134.65550500000001
  0
ARC
  5
45C
  8
0
 62
     7
 10
120.855493
 20
197.68086099999999
 30
0.0
 40
1.7217340000000001
 50
45.195915999999997
 51
81.209567000000007
  0
ARC
  5
45D
  8
0
 62
     7
 10
124.566827
 20
192.819422
 30
0.0
 40
6.575996
 50
67.67407
 51
112.325911
  0
ARC
  5
45E
  8
0
 62
     7
 10
128.270329
 20
197.37126599999991
 30
0.0
 40
1.771109
 50
227.10814500000001
 51
312.89187500000003
  0
ARC
  5
45F
  8
0
 62
     7
 10
120.863326
 20
197.37126599999991
 30
0.0
 40
1.771109
 50
227.10814500000001
 51
312.89187500000003
  0
ARC
  5
460
  8
0
 62
     7
 10
124.566827
 20
202.1567269999999
 30
0.0
 40
6.575996
 50
247.67408900000001
 51
292.32592999999991
  0
ARC
  5
461
  8
0
 62
     7
 10
109.3693889999999
 20
215.03416299999989
 30
0.0
 40
2.4003339999999991
 50
98.310299999999984
 51
171.679937
  0
ARC
  5
462
  8
0
 62
     7
 10
74.572492000000011
 20
304.62027
 30
0.0
 40
66.302816000000007
 50
268.20213699999999
 51
271.79788300000001
  0
LINE
  5
463
  8
0
 62
     7
 10
75.778999999999996
 20
238.328
 30
0.0
 11
75.778999999999996
 21
239.68199999999999
 31
0.0
  0
LINE
  5
464
  8
0
 62
     7
 10
76.278499999999994
 20
238.339
 30
0.0
 11
76.278499999999994
 21
239.68199999999999
 31
0.0
  0
LINE
  5
465
  8
0
 62
     7
 10
75.196700000000007
 20
238.31999999999991
 30
0.0
 11
75.196700000000007
 21
239.68199999999999
 31
0.0
  0
LINE
  5
466
  8
0
 62
     7
 10
73.947900000000004
 20
238.31999999999991
 30
0.0
 11
73.947900000000004
 21
239.68199999999999
 31
0.0
  0
LINE
  5
467
  8
0
 62
     7
 10
72.866100000000003
 20
238.339
 30
0.0
 11
72.866100000000003
 21
239.68199999999999
 31
0.0
  0
LINE
  5
468
  8
0
 62
     7
 10
73.366
 20
238.328
 30
0.0
 11
73.366
 21
239.68199999999999
 31
0.0
  0
LINE
  5
469
  8
0
 62
     7
 10
72.482699999999994
 20
238.34999999999999
 30
0.0
 11
72.482699999999994
 21
239.68199999999999
 31
0.0
  0
LINE
  5
46A
  8
0
 62
     7
 10
72.241500000000002
 20
238.49499999999989
 30
0.0
 11
72.241500000000002
 21
239.68199999999999
 31
0.0
  0
LINE
  5
46B
  8
0
 62
     7
 10
76.661999999999992
 20
238.34999999999999
 30
0.0
 11
76.661999999999992
 21
239.68199999999999
 31
0.0
  0
LINE
  5
46C
  8
0
 62
     7
 10
74.572500000000005
 20
238.31700000000001
 30
0.0
 11
74.572500000000005
 21
239.68199999999999
 31
0.0
  0
LINE
  5
46D
  8
0
 62
     7
 10
72.351299999999995
 20
239.68199999999999
 30
0.0
 11
76.985500000000002
 21
239.68199999999999
 31
0.0
  0
LINE
  5
46E
  8
0
 62
     7
 10
76.903099999999995
 20
238.49499999999989
 30
0.0
 11
76.903099999999995
 21
239.68199999999999
 31
0.0
  0
LINE
  5
46F
  8
0
 62
     7
 10
72.4923
 20
238.34999999999999
 30
0.0
 11
72.159499999999994
 21
238.54199999999989
 31
0.0
  0
LINE
  5
470
  8
0
 62
     7
 10
72.159499999999994
 20
238.54199999999989
 30
0.0
 11
72.159499999999994
 21
239.68199999999999
 31
0.0
  0
LINE
  5
471
  8
0
 62
     7
 10
76.652500000000003
 20
238.34999999999999
 30
0.0
 11
76.985500000000002
 21
238.54199999999989
 31
0.0
  0
LINE
  5
472
  8
0
 62
     7
 10
72.159499999999994
 20
239.68199999999999
 30
0.0
 11
76.985500000000002
 21
239.68199999999999
 31
0.0
  0
LINE
  5
473
  8
0
 62
     7
 10
76.985500000000002
 20
238.54199999999989
 30
0.0
 11
76.985500000000002
 21
239.68199999999999
 31
0.0
  0
ARC
  5
474
  8
0
 62
     7
 10
171.219774
 20
207.22277
 30
0.0
 40
66.302083999999994
 50
178.20208700000001
 51
181.79791299999999
  0
ARC
  5
475
  8
0
 62
     7
 10
108.563299
 20
203.14526299999989
 30
0.0
 40
2.0562869999999989
 50
188.297775
 51
261.71361100000001
  0
ARC
  5
476
  8
0
 62
     7
 10
117.743945
 20
200.8990849999999
 30
0.0
 40
2.3301050000000001
 50
0.004246
 51
90.004216000000014
  0
ARC
  5
477
  8
0
 62
     7
 10
129.71284800000001
 20
199.86032099999991
 30
0.0
 40
0.8447180000000001
 50
171.68281399999989
 51
224.58990800000001
  0
ARC
  5
478
  8
0
 62
     7
 10
99.341605999999999
 20
204.5382129999999
 30
0.0
 40
29.884743
 50
351.23084
 51
0.00882
  0
ARC
  5
479
  8
0
 62
     7
 10
99.213192000000006
 20
206.06779399999999
 30
0.0
 40
30.035371000000001
 50
357.79621400000002
 51
2.203786
  0
ARC
  5
47A
  8
0
 62
     7
 10
117.041962
 20
207.93001000000001
 30
0.0
 40
5.0058739999999986
 50
136.3852149999999
 51
163.08712700000001
  0
ARC
  5
47B
  8
0
 62
     7
 10
114.74876
 20
209.768021
 30
0.0
 40
2.092862999999999
 50
50.507216999999997
 51
129.49276299999991
  0
ARC
  5
47C
  8
0
 62
     7
 10
114.74876
 20
204.67786299999989
 30
0.0
 40
2.092862999999999
 50
230.50723699999989
 51
309.49278299999997
  0
ARC
  5
47D
  8
0
 62
     7
 10
117.0466939999999
 20
206.51780799999989
 30
0.0
 40
5.0106339999999987
 50
196.91943399999991
 51
223.59347299999999
  0
LINE
  5
47E
  8
0
 62
     7
 10
112.2529999999999
 20
209.38599999999991
 30
0.0
 11
112.2529999999999
 21
205.06
 31
0.0
  0
LINE
  5
47F
  8
0
 62
     7
 10
128.02799999999991
 20
213.87899999999999
 30
0.0
 11
121.10599999999999
 21
213.87899999999999
 31
0.0
  0
LINE
  5
480
  8
0
 62
     7
 10
121.438
 20
213.87899999999999
 30
0.0
 11
121.10599999999999
 21
213.303
 31
0.0
  0
LINE
  5
481
  8
0
 62
     7
 10
121.10599999999999
 20
214.56800000000001
 30
0.0
 11
121.10599999999999
 21
213.303
 31
0.0
  0
LINE
  5
482
  8
0
 62
     7
 10
121.438
 20
214.56800000000001
 30
0.0
 11
121.438
 21
213.87899999999999
 31
0.0
  0
LINE
  5
483
  8
0
 62
     7
 10
127.69499999999999
 20
213.87899999999999
 30
0.0
 11
128.02799999999991
 21
213.303
 31
0.0
  0
LINE
  5
484
  8
0
 62
     7
 10
127.69499999999999
 20
214.56800000000001
 30
0.0
 11
127.69499999999999
 21
213.87899999999999
 31
0.0
  0
LINE
  5
485
  8
0
 62
     7
 10
128.02799999999991
 20
214.56800000000001
 30
0.0
 11
128.02799999999991
 21
213.303
 31
0.0
  0
LINE
  5
486
  8
0
  6
AIGENLINE001
 62
     7
 10
104.098
 20
207.2229999999999
 30
0.0
 11
130.7889999999999
 21
207.2229999999999
 31
0.0
  0
LINE
  5
487
  8
0
 62
     7
 10
122.069
 20
198.90199999999999
 30
0.0
 11
122.069
 21
196.07400000000001
 31
0.0
  0
LINE
  5
488
  8
0
 62
     7
 10
127.065
 20
198.90199999999999
 30
0.0
 11
127.065
 21
196.07400000000001
 31
0.0
  0
LINE
  5
489
  8
0
 62
     7
 10
104.929
 20
206.01699999999991
 30
0.0
 11
106.282
 21
206.01699999999991
 31
0.0
  0
LINE
  5
48A
  8
0
 62
     7
 10
104.9399999999999
 20
205.51699999999991
 30
0.0
 11
106.282
 21
205.51699999999991
 31
0.0
  0
LINE
  5
48B
  8
0
 62
     7
 10
104.92099999999991
 20
206.59899999999999
 30
0.0
 11
106.282
 21
206.59899999999999
 31
0.0
  0
LINE
  5
48C
  8
0
 62
     7
 10
104.92099999999991
 20
207.84700000000001
 30
0.0
 11
106.282
 21
207.84700000000001
 31
0.0
  0
LINE
  5
48D
  8
0
 62
     7
 10
104.9399999999999
 20
208.929
 30
0.0
 11
106.282
 21
208.929
 31
0.0
  0
LINE
  5
48E
  8
0
 62
     7
 10
104.929
 20
208.43000000000001
 30
0.0
 11
106.282
 21
208.43000000000001
 31
0.0
  0
LINE
  5
48F
  8
0
 62
     7
 10
104.95099999999999
 20
209.3129999999999
 30
0.0
 11
106.282
 21
209.3129999999999
 31
0.0
  0
LINE
  5
490
  8
0
 62
     7
 10
105.095
 20
209.554
 30
0.0
 11
106.282
 21
209.554
 31
0.0
  0
LINE
  5
491
  8
0
 62
     7
 10
104.95099999999999
 20
205.1329999999999
 30
0.0
 11
106.282
 21
205.1329999999999
 31
0.0
  0
LINE
  5
492
  8
0
 62
     7
 10
104.91800000000001
 20
207.2229999999999
 30
0.0
 11
106.282
 21
207.2229999999999
 31
0.0
  0
LINE
  5
493
  8
0
 62
     7
 10
106.282
 20
209.44399999999999
 30
0.0
 11
106.282
 21
204.81
 31
0.0
  0
LINE
  5
494
  8
0
 62
     7
 10
105.095
 20
204.89199999999991
 30
0.0
 11
106.282
 21
204.89199999999991
 31
0.0
  0
LINE
  5
495
  8
0
 62
     7
 10
106.994
 20
215.38099999999989
 30
0.0
 11
106.282
 21
209.59200000000001
 31
0.0
  0
LINE
  5
496
  8
0
 62
     7
 10
110.0889999999999
 20
200.88699999999989
 30
0.0
 11
108.267
 21
201.11000000000001
 31
0.0
  0
LINE
  5
497
  8
0
 62
     7
 10
110.0889999999999
 20
217.53999999999991
 30
0.0
 11
109.02200000000001
 21
217.40899999999999
 31
0.0
  0
LINE
  5
498
  8
0
 62
     7
 10
110.0889999999999
 20
200.89899999999989
 30
0.0
 11
110.0889999999999
 21
217.53999999999991
 31
0.0
  0
LINE
  5
499
  8
0
 62
     7
 10
104.95
 20
209.303
 30
0.0
 11
105.1429999999999
 21
209.63599999999991
 31
0.0
  0
LINE
  5
49A
  8
0
 62
     7
 10
105.1429999999999
 20
209.63599999999991
 30
0.0
 11
106.282
 21
209.63599999999991
 31
0.0
  0
LINE
  5
49B
  8
0
 62
     7
 10
104.95
 20
205.14299999999989
 30
0.0
 11
105.1429999999999
 21
204.81
 31
0.0
  0
LINE
  5
49C
  8
0
 62
     7
 10
106.282
 20
209.63599999999991
 30
0.0
 11
106.282
 21
204.81
 31
0.0
  0
LINE
  5
49D
  8
0
 62
     7
 10
106.52800000000001
 20
202.84899999999999
 30
0.0
 11
106.282
 21
204.85299999999989
 31
0.0
  0
LINE
  5
49E
  8
0
 62
     7
 10
105.1429999999999
 20
204.81
 30
0.0
 11
106.282
 21
204.81
 31
0.0
  0
LINE
  5
49F
  8
0
 62
     7
 10
116.08
 20
203.46199999999999
 30
0.0
 11
116.91200000000001
 21
203.46199999999999
 31
0.0
  0
LINE
  5
4A0
  8
0
 62
     7
 10
117.3149999999999
 20
203.22900000000001
 30
0.0
 11
116.91200000000001
 21
203.46199999999999
 31
0.0
  0
LINE
  5
4A1
  8
0
 62
     7
 10
116.08
 20
210.98400000000001
 30
0.0
 11
116.91200000000001
 21
210.98400000000001
 31
0.0
  0
LINE
  5
4A2
  8
0
 62
     7
 10
116.91200000000001
 20
210.98400000000001
 30
0.0
 11
117.3149999999999
 21
211.21700000000001
 31
0.0
  0
LINE
  5
4A3
  8
0
 62
     7
 10
112.0859999999999
 20
209.38599999999991
 30
0.0
 11
112.2529999999999
 21
209.38599999999991
 31
0.0
  0
LINE
  5
4A4
  8
0
 62
     7
 10
112.0859999999999
 20
209.38599999999991
 30
0.0
 11
112.0859999999999
 21
205.06
 31
0.0
  0
LINE
  5
4A5
  8
0
 62
     7
 10
116.08
 20
211.3829999999999
 30
0.0
 11
116.08
 21
203.0629999999999
 31
0.0
  0
LINE
  5
4A6
  8
0
 62
     7
 10
112.0859999999999
 20
205.06
 30
0.0
 11
112.2529999999999
 21
205.06
 31
0.0
  0
LINE
  5
4A7
  8
0
 62
     7
 10
110.0889999999999
 20
208.80399999999989
 30
0.0
 11
112.0859999999999
 21
208.80399999999989
 31
0.0
  0
LINE
  5
4A8
  8
0
 62
     7
 10
110.0889999999999
 20
205.642
 30
0.0
 11
112.0859999999999
 21
205.642
 31
0.0
  0
LINE
  5
4A9
  8
0
 62
     7
 10
128.977
 20
195.57400000000001
 30
0.0
 11
120.157
 21
195.57400000000001
 31
0.0
  0
LINE
  5
4AA
  8
0
 62
     7
 10
129.1109999999999
 20
199.267
 30
0.0
 11
129.47599999999991
 21
198.90199999999999
 31
0.0
  0
LINE
  5
4AB
  8
0
 62
     7
 10
120.157
 20
195.57400000000001
 30
0.0
 11
119.6579999999999
 21
196.07400000000001
 31
0.0
  0
LINE
  5
4AC
  8
0
 62
     7
 10
128.977
 20
195.57400000000001
 30
0.0
 11
129.47599999999991
 21
196.07400000000001
 31
0.0
  0
LINE
  5
4AD
  8
0
 62
     7
 10
129.47599999999991
 20
198.90199999999999
 30
0.0
 11
129.47599999999991
 21
196.07400000000001
 31
0.0
  0
LINE
  5
4AE
  8
0
 62
     7
 10
119.6579999999999
 20
198.90199999999999
 30
0.0
 11
119.6579999999999
 21
196.07400000000001
 31
0.0
  0
LINE
  5
4AF
  8
0
 62
     7
 10
129.22599999999991
 20
204.9129999999999
 30
0.0
 11
129.22599999999991
 21
204.54300000000001
 31
0.0
  0
LINE
  5
4B0
  8
0
  6
AIGENLINE001
 62
     7
 10
124.56699999999999
 20
223.43199999999999
 30
0.0
 11
124.56699999999999
 21
73.926000000000002
 31
0.0
  0
LINE
  5
4B1
  8
0
 62
     7
 10
116.08
 20
211.21700000000001
 30
0.0
 11
117.4109999999999
 21
211.21700000000001
 31
0.0
  0
LINE
  5
4B2
  8
0
 62
     7
 10
116.91200000000001
 20
211.21700000000001
 30
0.0
 11
116.91200000000001
 21
203.22900000000001
 31
0.0
  0
LINE
  5
4B3
  8
0
 62
     7
 10
117.4109999999999
 20
203.22900000000001
 30
0.0
 11
117.744
 21
203.22900000000001
 31
0.0
  0
LINE
  5
4B4
  8
0
 62
     7
 10
116.08
 20
203.22900000000001
 30
0.0
 11
117.4109999999999
 21
203.22900000000001
 31
0.0
  0
LINE
  5
4B5
  8
0
 62
     7
 10
124.56699999999999
 20
224.35400000000001
 30
0.0
 11
124.56699999999999
 21
230.399
 31
0.0
  0
LINE
  5
4B6
  8
0
 62
     7
 10
104.91800000000001
 20
210.31899999999999
 30
0.0
 11
104.91800000000001
 21
230.399
 31
0.0
  0
LINE
  5
4B7
  8
0
 62
     7
 10
107.1279999999999
 20
230.08399999999989
 30
0.0
 11
104.91800000000001
 21
229.49199999999999
 31
0.0
  0
LINE
  5
4B8
  8
0
 62
     7
 10
104.91800000000001
 20
229.49199999999999
 30
0.0
 11
107.1279999999999
 21
228.899
 31
0.0
  0
LINE
  5
4B9
  8
0
 62
     7
 10
107.1279999999999
 20
228.899
 30
0.0
 11
107.1279999999999
 21
230.08399999999989
 31
0.0
  0
LINE
  5
4BA
  8
0
 62
     7
 10
122.35599999999999
 20
228.91399999999999
 30
0.0
 11
124.56699999999999
 21
229.50599999999989
 31
0.0
  0
LINE
  5
4BB
  8
0
 62
     7
 10
124.56699999999999
 20
229.50599999999989
 30
0.0
 11
122.35599999999999
 21
230.09899999999999
 31
0.0
  0
LINE
  5
4BC
  8
0
 62
     7
 10
122.35599999999999
 20
230.09899999999999
 30
0.0
 11
122.35599999999999
 21
228.91399999999999
 31
0.0
  0
LINE
  5
4BD
  8
0
 62
     7
 10
104.91800000000001
 20
229.499
 30
0.0
 11
124.56699999999999
 21
229.499
 31
0.0
  0
LINE
  5
4BE
  8
0
 62
     7
 10
114.56699999999999
 20
77.694599999999994
 30
0.0
 11
114.56699999999999
 21
67.288300000000007
 31
0.0
  0
LINE
  5
4BF
  8
0
 62
     7
 10
134.56700000000001
 20
77.694599999999994
 30
0.0
 11
134.56700000000001
 21
67.288300000000007
 31
0.0
  0
LINE
  5
4C0
  8
0
 62
     7
 10
132.35599999999999
 20
67.602199999999996
 30
0.0
 11
134.56700000000001
 21
68.194400000000002
 31
0.0
  0
LINE
  5
4C1
  8
0
 62
     7
 10
134.56700000000001
 20
68.194400000000002
 30
0.0
 11
132.35599999999999
 21
68.786600000000007
 31
0.0
  0
LINE
  5
4C2
  8
0
 62
     7
 10
132.35599999999999
 20
68.786600000000007
 30
0.0
 11
132.35599999999999
 21
67.602199999999996
 31
0.0
  0
LINE
  5
4C3
  8
0
 62
     7
 10
116.7769999999999
 20
68.772099999999995
 30
0.0
 11
114.56699999999999
 21
68.179900000000004
 31
0.0
  0
LINE
  5
4C4
  8
0
 62
     7
 10
114.56699999999999
 20
68.179900000000004
 30
0.0
 11
116.7769999999999
 21
67.587699999999998
 31
0.0
  0
LINE
  5
4C5
  8
0
 62
     7
 10
116.7769999999999
 20
67.587699999999998
 30
0.0
 11
116.7769999999999
 21
68.772099999999995
 31
0.0
  0
LINE
  5
4C6
  8
0
 62
     7
 10
134.56700000000001
 20
68.187100000000001
 30
0.0
 11
114.56699999999999
 21
68.187100000000001
 31
0.0
  0
LINE
  5
4C7
  8
0
 62
     7
 10
119.9829999999999
 20
75.600999999999999
 30
0.0
 11
121.23099999999999
 21
77.519599999999997
 31
0.0
  0
LINE
  5
4C8
  8
0
 62
     7
 10
121.23099999999999
 20
77.519599999999997
 30
0.0
 11
119.191
 21
76.481899999999996
 31
0.0
  0
LINE
  5
4C9
  8
0
 62
     7
 10
119.191
 20
76.481899999999996
 30
0.0
 11
119.9829999999999
 21
75.600999999999999
 31
0.0
  0
LINE
  5
4CA
  8
0
 62
     7
 10
121.23099999999999
 20
77.519599999999997
 30
0.0
 11
118.3159999999999
 21
74.898200000000003
 31
0.0
  0
LINE
  5
4CB
  8
0
 62
     7
 10
118.3159999999999
 20
74.898200000000003
 30
0.0
 11
106.6019999999999
 21
74.898200000000003
 31
0.0
  0
TEXT
  5
4CC
  8
_________2
 62
     7
 10
29.7258
 20
21.827200000000001
 30
0.0
 40
3.9357000000000002
  1
・ストレーナ付、固定こま式
 41
0.5
  0
LINE
  5
4CD
  8
_________2
 62
     7
 10
210.24000000000001
 20
148.93100000000001
 30
0.0
 11
188.49000000000001
 21
148.93100000000001
 31
0.0
  0
LINE
  5
4CE
  8
_________2
 62
     7
 10
105.2389999999999
 20
17.428499999999989
 30
0.0
 11
105.2389999999999
 21
0.4482100000000001
 31
0.0
  0
LINE
  5
4CF
  8
_________2
 62
     7
 10
105.2389999999999
 20
297.44999999999987
 30
0.0
 11
105.2389999999999
 21
280.42999999999989
 31
0.0
  0
LINE
  5
4D0
  8
_________2
 62
     7
 10
21.988499999999991
 20
148.93100000000001
 30
0.0
 11
0.238058
 21
148.93100000000001
 31
0.0
  0
LINE
  5
4D1
  8
_________2
 62
     7
 10
81.679900000000004
 20
51.324300000000001
 30
0.0
 11
79.493700000000004
 21
51.324300000000001
 31
0.0
  0
LINE
  5
4D2
  8
_________2
 62
     7
 10
82.172600000000017
 20
51.324300000000001
 30
0.0
 11
81.920400000000001
 21
51.324300000000001
 31
0.0
  0
LINE
  5
4D3
  8
_________2
 62
     7
 10
82.665199999999984
 20
51.324300000000001
 30
0.0
 11
85.590100000000007
 21
51.324300000000001
 31
0.0
  0
LINE
  5
4D4
  8
_________2
 62
     7
 10
82.172600000000017
 20
51.324300000000001
 30
0.0
 11
82.424800000000005
 21
51.324300000000001
 31
0.0
  0
LINE
  5
4D5
  8
_________2
 62
     7
 10
75.776399999999995
 20
51.324300000000001
 30
0.0
 11
73.589399999999998
 21
51.324300000000001
 31
0.0
  0
LINE
  5
4D6
  8
_________2
 62
     7
 10
76.2684
 20
51.324300000000001
 30
0.0
 11
76.016900000000007
 21
51.324300000000001
 31
0.0
  0
LINE
  5
4D7
  8
_________2
 62
     7
 10
76.2684
 20
51.817
 30
0.0
 11
76.2684
 21
54.003900000000002
 31
0.0
  0
LINE
  5
4D8
  8
_________2
 62
     7
 10
76.2684
 20
51.324300000000001
 30
0.0
 11
76.2684
 21
51.576500000000003
 31
0.0
  0
LINE
  5
4D9
  8
_________2
 62
     7
 10
76.76100000000001
 20
51.324300000000001
 30
0.0
 11
78.947999999999993
 21
51.324300000000001
 31
0.0
  0
LINE
  5
4DA
  8
_________2
 62
     7
 10
76.2684
 20
51.324300000000001
 30
0.0
 11
76.520499999999998
 21
51.324300000000001
 31
0.0
  0
LINE
  5
4DB
  8
_________2
 62
     7
 10
76.2684
 20
50.832399999999993
 30
0.0
 11
76.2684
 21
48.645400000000002
 31
0.0
  0
LINE
  5
4DC
  8
_________2
 62
     7
 10
76.2684
 20
51.324300000000001
 30
0.0
 11
76.2684
 21
51.072800000000001
 31
0.0
  0
LINE
  5
4DD
  8
_________2
 62
     7
 10
79.979399999999984
 20
50.104799999999997
 30
0.0
 11
85.157399999999996
 21
49.240000000000002
 31
0.0
  0
LINE
  5
4DE
  8
_________2
 62
     7
 10
79.979399999999984
 20
52.543900000000001
 30
0.0
 11
85.157399999999996
 21
53.409300000000002
 31
0.0
  0
LINE
  5
4DF
  8
_________2
 62
     7
 10
85.157399999999996
 20
49.240000000000002
 30
0.0
 11
85.157399999999996
 21
53.409300000000002
 31
0.0
  0
LINE
  5
4E0
  8
_________2
 62
     7
 10
79.979399999999984
 20
50.104799999999997
 30
0.0
 11
79.979399999999984
 21
52.543900000000001
 31
0.0
  0
ARC
  5
4E1
  8
_________2
 62
     7
 10
76.222110000000001
 20
51.277366999999991
 30
0.0
 40
1.2673709999999989
 50
2.1232950000000002
 51
87.909056000000007
  0
ARC
  5
4E2
  8
_________2
 62
     7
 10
76.315273000000005
 20
51.277400999999998
 30
0.0
 40
1.267363
 50
92.121785999999986
 51
177.878185
  0
ARC
  5
4E3
  8
_________2
 62
     7
 10
76.315273000000005
 20
51.371245999999992
 30
0.0
 40
1.267363
 50
182.12181499999991
 51
267.87821400000001
  0
ARC
  5
4E4
  8
_________2
 62
     7
 10
76.221461000000005
 20
51.371928999999987
 30
0.0
 40
1.2680439999999991
 50
272.11916400000001
 51
357.84848499999993
  0
ARC
  5
4E5
  8
_________2
 62
     7
 10
76.268349999999984
 20
51.324323
 30
0.0
 40
2.0849849999999992
 50
0.00001
 51
89.999980000000008
  0
ARC
  5
4E6
  8
_________2
 62
     7
 10
76.348388
 20
51.245001999999992
 30
0.0
 40
2.1657860000000002
 50
92.117855000000034
 51
177.90105299999991
  0
ARC
  5
4E7
  8
_________2
 62
     7
 10
76.348354
 20
51.404327000000002
 30
0.0
 40
2.1657779999999991
 50
182.11700400000001
 51
267.88302499999992
  0
ARC
  5
4E8
  8
_________2
 62
     7
 10
76.188378999999983
 20
51.405009999999997
 30
0.0
 40
2.1664590000000001
 50
272.11546800000002
 51
357.86560400000002
  0
TEXT
  5
4E9
  8
_________2
 62
     7
 10
109.5439999999999
 20
23.199100000000001
 30
0.0
 40
3.0923400000000001
  1
図番
 41
0.5
  0
LINE
  5
4EA
  8
_________2
 62
     7
 10
108.4889999999999
 20
27.4283
 30
0.0
 11
188.49000000000001
 21
27.4283
 31
0.0
  0
TEXT
  5
4EB
  8
_________2
 62
     7
 10
109.5439999999999
 20
33.198900000000002
 30
0.0
 40
3.0923400000000001
  1
品番
 41
0.5
  0
TEXT
  5
4EC
  8
_________2
 62
     7
 10
109.5439999999999
 20
53.337699999999998
 30
0.0
 40
3.0923400000000001
  1
名称
 41
0.5
  0
TEXT
  5
4ED
  8
_________2
 62
     7
 10
96.784058333333334
 20
48.341500000000011
 30
0.0
 40
3.6545800000000002
  1
mm
 41
0.5
 72
     1
 11
98.306799999999996
 21
48.341500000000011
 31
0.0
  0
TEXT
  5
4EE
  8
_________2
 62
     7
 10
90.582099999999997
 20
53.337699999999998
 30
0.0
 40
3.0923400000000001
  1
単位
 41
0.5
  0
TEXT
  5
4EF
  8
_________2
 62
     7
 10
90.582099999999997
 20
40.930399999999999
 30
0.0
 40
3.0923400000000001
  1
尺度
 41
0.5
  0
TEXT
  5
4F0
  8
_________2
 62
     7
 10
95.487658666666675
 20
34.73749999999999
 30
0.0
 40
3.6545800000000002
  1
1 ： 3
 41
0.5
 72
     1
 11
98.898600000000002
 21
34.73749999999999
 31
0.0
  0
TEXT
  5
4F1
  8
_________2
 62
     7
 10
143.2414
 20
30.627400000000002
 30
0.0
 40
3.9357000000000002
  1
CET146
 41
0.5
 72
     1
 11
148.489
 21
30.627400000000002
 31
0.0
  0
TEXT
  5
4F2
  8
_________2
 62
     7
 10
143.2414
 20
20.626999999999988
 30
0.0
 40
3.9357000000000002
  1
CET146
 41
0.5
 72
     1
 11
148.489
 21
20.626999999999988
 31
0.0
  0
TEXT
  5
4F3
  8
_________2
 62
     7
 10
114.11799999999999
 20
45.7453
 30
0.0
 40
3.9357000000000002
  1
ストレート止水栓
 41
0.5
  0
TEXT
  5
4F4
  8
_________2
 62
     7
 10
44.303290666666669
 20
35.122599999999991
 30
0.0
 40
3.6545800000000002
  1
高橋
 41
0.5
 72
     1
 11
46.252400000000002
 21
35.122599999999991
 31
0.0
  0
TEXT
  5
4F5
  8
_________2
 62
     7
 10
25.72929066666666
 20
35.122599999999991
 30
0.0
 40
3.6545800000000002
  1
石原
 41
0.5
 72
     1
 11
27.6784
 21
35.122599999999991
 31
0.0
  0
TEXT
  5
4F6
  8
_________2
 62
     7
 10
72.724699999999999
 20
34.73749999999999
 30
0.0
 40
3.6545800000000002
  1
07.11.05
 41
0.5
  0
TEXT
  5
4F7
  8
_________2
 62
     7
 10
71.531999999999996
 20
40.930399999999999
 30
0.0
 40
3.0923400000000001
  1
日付
 41
0.5
  0
TEXT
  5
4F8
  8
_________2
 62
     7
 10
34.578299999999992
 20
40.930399999999999
 30
0.0
 40
3.0923400000000001
  1
検図
 41
0.5
  0
TEXT
  5
4F9
  8
_________2
 62
     7
 10
22.960000000000001
 20
26.730999999999991
 30
0.0
 40
3.0923400000000001
  1
備考
 41
0.5
  0
TEXT
  5
4FA
  8
_________2
 62
     7
 10
22.960000000000001
 20
40.930399999999999
 30
0.0
 40
3.0923400000000001
  1
製図
 41
0.5
  0
TEXT
  5
4FB
  8
_________2
 62
     7
 10
28.727365333333339
 20
49.456400000000002
 30
0.0
 40
4.4979399999999989
  1
セラトレーディング株式会社
 41
0.5
 72
     1
 11
46.119399999999992
 21
49.456400000000002
 31
0.0
  0
LINE
  5
4FC
  8
_________2
 62
     7
 10
188.49000000000001
 20
17.428499999999989
 30
0.0
 11
21.988499999999991
 21
17.428499999999989
 31
0.0
  0
LINE
  5
4FD
  8
_________2
 62
     7
 10
21.988499999999991
 20
17.428499999999989
 30
0.0
 11
21.988499999999991
 21
280.42999999999989
 31
0.0
  0
LINE
  5
4FE
  8
_________2
 62
     7
 10
21.988499999999991
 20
280.42999999999989
 30
0.0
 11
188.49000000000001
 21
280.42999999999989
 31
0.0
  0
LINE
  5
4FF
  8
_________2
 62
     7
 10
188.49000000000001
 20
280.42999999999989
 30
0.0
 11
188.49000000000001
 21
17.428499999999989
 31
0.0
  0
LINE
  5
500
  8
_________2
 62
     7
 10
70.488799999999998
 20
30.9285
 30
0.0
 11
70.488799999999998
 21
57.428400000000011
 31
0.0
  0
LINE
  5
501
  8
_________2
 62
     7
 10
89.488600000000005
 20
30.9285
 30
0.0
 11
89.488600000000005
 21
57.428400000000011
 31
0.0
  0
LINE
  5
502
  8
_________2
 62
     7
 10
108.4889999999999
 20
17.428499999999989
 30
0.0
 11
108.4889999999999
 21
57.428400000000011
 31
0.0
  0
LINE
  5
503
  8
_________2
 62
     7
 10
33.488300000000002
 20
30.9285
 30
0.0
 11
33.488300000000002
 21
44.928800000000003
 31
0.0
  0
LINE
  5
504
  8
_________2
 62
     7
 10
21.988499999999991
 20
30.9285
 30
0.0
 11
108.4889999999999
 21
30.9285
 31
0.0
  0
LINE
  5
505
  8
_________2
 62
     7
 10
21.988499999999991
 20
44.928800000000003
 30
0.0
 11
108.4889999999999
 21
44.928800000000003
 31
0.0
  0
LINE
  5
506
  8
_________2
 62
     7
 10
108.4889999999999
 20
37.428100000000001
 30
0.0
 11
188.49000000000001
 21
37.428100000000001
 31
0.0
  0
LINE
  5
507
  8
_________2
 62
     7
 10
21.988499999999991
 20
57.428400000000011
 30
0.0
 11
188.49000000000001
 21
57.428400000000011
 31
0.0
  0
ENDSEC
  0
EOF
