  0
SECTION
  2
HEADER
  9
$ACADVER
  1
AC1009
  9
$INSBASE
 10
0.0
 20
0.0
 30
0.0
  9
$EXTMIN
 10
-104.794
 20
0.176045
 30
0.0
  9
$EXTMAX
 10
315.209
 20
297.178
 30
0.0
  9
$LIMMIN
 10
0.0
 20
0.0
  9
$LIMMAX
 10
12.0
 20
9.0
  9
$ORTHOMODE
 70
     0
  9
$REGENMODE
 70
     1
  9
$FILLMODE
 70
     1
  9
$QTEXTMODE
 70
     0
  9
$MIRRTEXT
 70
     1
  9
$DRAGMODE
 70
     2
  9
$LTSCALE
 40
1.0
  9
$OSMODE
 70
    37
  9
$ATTMODE
 70
     1
  9
$TEXTSIZE
 40
0.0
  9
$TRACEWID
 40
0.05
  9
$TEXTSTYLE
  7
STANDARD
  9
$CLAYER
  8
0
  9
$CELTYPE
  6
CONTINUOUS
  9
$CECOLOR
 62
   256
  9
$DIMSCALE
 40
1.0
  9
$DIMASZ
 40
0.18
  9
$DIMEXO
 40
0.0625
  9
$DIMDLI
 40
0.38
  9
$DIMRND
 40
0.0
  9
$DIMDLE
 40
0.0
  9
$DIMEXE
 40
0.18
  9
$DIMTP
 40
0.0
  9
$DIMTM
 40
0.0
  9
$DIMTXT
 40
0.18
  9
$DIMCEN
 40
0.09
  9
$DIMTSZ
 40
0.0
  9
$DIMTOL
 70
     0
  9
$DIMLIM
 70
     0
  9
$DIMTIH
 70
     1
  9
$DIMTOH
 70
     1
  9
$DIMSE1
 70
     0
  9
$DIMSE2
 70
     0
  9
$DIMTAD
 70
     0
  9
$DIMZIN
 70
     0
  9
$DIMBLK
  1

  9
$DIMASO
 70
     1
  9
$DIMSHO
 70
     1
  9
$DIMPOST
  1

  9
$DIMAPOST
  1

  9
$DIMALT
 70
     0
  9
$DIMALTD
 70
     2
  9
$DIMALTF
 40
25.399999999999999
  9
$DIMLFAC
 40
1.0
  9
$DIMTOFL
 70
     0
  9
$DIMTVP
 40
0.0
  9
$DIMTIX
 70
     0
  9
$DIMSOXD
 70
     0
  9
$DIMSAH
 70
     0
  9
$DIMBLK1
  1

  9
$DIMBLK2
  1

  9
$DIMSTYLE
  2
STANDARD
  9
$DIMCLRD
 70
     0
  9
$DIMCLRE
 70
     0
  9
$DIMCLRT
 70
     0
  9
$DIMTFAC
 40
1.0
  9
$DIMGAP
 40
0.09
  9
$LUNITS
 70
     2
  9
$LUPREC
 70
     4
  9
$SKETCHINC
 40
0.1
  9
$FILLETRAD
 40
0.0
  9
$AUNITS
 70
     0
  9
$AUPREC
 70
     0
  9
$MENU
  1
.
  9
$ELEVATION
 40
0.0
  9
$PELEVATION
 40
0.0
  9
$THICKNESS
 40
0.0
  9
$LIMCHECK
 70
     0
  9
$BLIPMODE
 70
     0
  9
$CHAMFERA
 40
0.0
  9
$CHAMFERB
 40
0.0
  9
$SKPOLY
 70
     0
  9
$TDCREATE
 40
2444972.375
  9
$TDUPDATE
 40
2458758.2557046409
  9
$TDINDWG
 40
0.0000367477
  9
$TDUSRTIMER
 40
0.0000367477
  9
$USRTIMER
 70
     1
  9
$ANGBASE
 50
0.0
  9
$ANGDIR
 70
     0
  9
$PDMODE
 70
     0
  9
$PDSIZE
 40
0.0
  9
$PLINEWID
 40
0.0
  9
$COORDS
 70
     1
  9
$SPLFRAME
 70
     0
  9
$SPLINETYPE
 70
     6
  9
$SPLINESEGS
 70
     8
  9
$ATTDIA
 70
     1
  9
$ATTREQ
 70
     1
  9
$HANDLING
 70
     1
  9
$HANDSEED
  5
8D3
  9
$SURFTAB1
 70
     6
  9
$SURFTAB2
 70
     6
  9
$SURFTYPE
 70
     6
  9
$SURFU
 70
     6
  9
$SURFV
 70
     6
  9
$UCSNAME
  2

  9
$UCSORG
 10
0.0
 20
0.0
 30
0.0
  9
$UCSXDIR
 10
1.0
 20
0.0
 30
0.0
  9
$UCSYDIR
 10
0.0
 20
1.0
 30
0.0
  9
$PUCSNAME
  2

  9
$PUCSORG
 10
0.0
 20
0.0
 30
0.0
  9
$PUCSXDIR
 10
1.0
 20
0.0
 30
0.0
  9
$PUCSYDIR
 10
0.0
 20
1.0
 30
0.0
  9
$USERI1
 70
     0
  9
$USERI2
 70
     0
  9
$USERI3
 70
     0
  9
$USERI4
 70
     0
  9
$USERI5
 70
     0
  9
$USERR1
 40
0.0
  9
$USERR2
 40
0.0
  9
$USERR3
 40
0.0
  9
$USERR4
 40
0.0
  9
$USERR5
 40
0.0
  9
$WORLDVIEW
 70
     1
  9
$SHADEDGE
 70
     3
  9
$SHADEDIF
 70
    70
  9
$TILEMODE
 70
     1
  9
$MAXACTVP
 70
    48
  9
$PLIMCHECK
 70
     0
  9
$PEXTMIN
 10
1.0000000000000000E+020
 20
1.0000000000000000E+020
 30
1.0000000000000000E+020
  9
$PEXTMAX
 10
-1.0000000000000000E+020
 20
-1.0000000000000000E+020
 30
-1.0000000000000000E+020
  9
$PLIMMIN
 10
0.0
 20
0.0
  9
$PLIMMAX
 10
12.0
 20
9.0
  9
$UNITMODE
 70
     0
  9
$VISRETAIN
 70
     1
  9
$PLINEGEN
 70
     0
  9
$PSLTSCALE
 70
     1
  0
ENDSEC
  0
SECTION
  2
TABLES
  0
TABLE
  2
VPORT
 70
     1
  0
VPORT
  2
*ACTIVE
 70
     0
 10
0.0
 20
0.0
 11
1.0
 21
1.0
 12
195.84271114783351
 22
148.589
 13
0.0
 23
0.0
 14
1.0
 24
1.0
 15
0.0
 25
0.0
 16
0.0
 26
0.0
 36
1.0
 17
0.0
 27
0.0
 37
0.0
 40
281.11539623648741
 41
2.298642533936651
 42
50.0
 43
0.0
 44
0.0
 50
0.0
 51
0.0
 71
     0
 72
   100
 73
     1
 74
     1
 75
     0
 76
     0
 77
     0
 78
     0
  0
ENDTAB
  0
TABLE
  2
LTYPE
 70
     2
  0
LTYPE
  2
CONTINUOUS
 70
     0
  3
Solid line
 72
    65
 73
     0
 40
0.0
  0
LTYPE
  2
AIGENLINE001
 70
     0
  3
generate AI->DXF Converter
 72
    65
 73
     4
 40
5.8561449999999988
 49
3.5278
 49
-0.776115
 49
0.776115
 49
-0.776115
  0
ENDTAB
  0
TABLE
  2
LAYER
 70
     4
  0
LAYER
  2
0
 70
     0
 62
     7
  6
CONTINUOUS
  0
LAYER
  2
____
 70
     0
 62
     7
  6
CONTINUOUS
  0
LAYER
  2
_________1
 70
     0
 62
     7
  6
CONTINUOUS
  0
LAYER
  2
_________2
 70
     0
 62
     7
  6
CONTINUOUS
  0
ENDTAB
  0
TABLE
  2
STYLE
 70
     1
  0
STYLE
  2
STANDARD
 70
     0
 40
0.0
 41
0.0
 50
0.0
 71
     0
 42
0.0
  3
TXT
  4
EXTFONT.SHX
  0
ENDTAB
  0
TABLE
  2
VIEW
 70
     0
  0
ENDTAB
  0
TABLE
  2
UCS
 70
     0
  0
ENDTAB
  0
TABLE
  2
APPID
 70
     3
  0
APPID
  2
ACAD
 70
     0
  0
APPID
  2
ACAD_NAV_VCDISPLAY
 70
     0
  0
APPID
  2
ACAD_MLEADERVER
 70
     0
  0
ENDTAB
  0
TABLE
  2
DIMSTYLE
 70
     1
  0
DIMSTYLE
  2
STANDARD
 70
     0
  3

  4

  5

  6

  7

 40
1.0
 41
0.18
 42
0.0625
 43
0.38
 44
0.18
 45
0.0
 46
0.0
 47
0.0
 48
0.0
140
0.18
141
0.09
142
0.0
143
25.399999999999999
144
1.0
145
0.0
146
1.0
147
0.09
 71
     0
 72
     0
 73
     1
 74
     1
 75
     0
 76
     0
 77
     0
 78
     0
170
     0
171
     2
172
     0
173
     0
174
     0
175
     0
176
     0
177
     0
178
     0
  0
ENDTAB
  0
ENDSEC
  0
SECTION
  2
BLOCKS
  0
BLOCK
  8
0
  2
$MODEL_SPACE
 70
     0
 10
0.0
 20
0.0
 30
0.0
  3
$MODEL_SPACE
  1

  0
ENDBLK
  5
1A
  8
0
  0
BLOCK
 67
     1
  8
0
  2
$PAPER_SPACE
 70
     0
 10
0.0
 20
0.0
 30
0.0
  3
$PAPER_SPACE
  1

  0
ENDBLK
  5
17
 67
     1
  8
0
  0
BLOCK
  8
_________1
  2
AIGNBL02020004
 70
     0
 10
0.0
 20
0.0
 30
0.0
  3
AIGNBL02020004
  1

  0
LINE
  5
26
  8
_________1
 62
     7
 10
60.333100000000002
 20
56.69319999999999
 30
0.0
 11
62.544199999999989
 21
57.285800000000002
 31
0.0
  0
LINE
  5
27
  8
_________1
 62
     7
 10
62.544199999999989
 20
57.285800000000002
 30
0.0
 11
60.333100000000002
 21
57.877299999999991
 31
0.0
  0
LINE
  5
28
  8
_________1
 62
     7
 10
60.333100000000002
 20
57.877299999999991
 30
0.0
 11
60.333100000000002
 21
56.69319999999999
 31
0.0
  0
LINE
  5
29
  8
_________1
 62
     7
 10
59.504899999999999
 20
57.8628
 30
0.0
 11
57.293900000000001
 21
57.270899999999997
 31
0.0
  0
LINE
  5
2A
  8
_________1
 62
     7
 10
57.293900000000001
 20
57.270899999999997
 30
0.0
 11
59.504899999999999
 21
56.678400000000003
 31
0.0
  0
LINE
  5
2B
  8
_________1
 62
     7
 10
59.504899999999999
 20
56.678400000000003
 30
0.0
 11
59.504899999999999
 21
57.8628
 31
0.0
  0
LINE
  5
2C
  8
_________1
 62
     7
 10
62.544199999999989
 20
57.277799999999999
 30
0.0
 11
48.694499999999998
 21
57.277799999999999
 31
0.0
  0
ENDBLK
  5
2D
  8
_________1
  0
BLOCK
  8
_________1
  2
AIGNBL02010002
 70
     0
 10
0.0
 20
0.0
 30
0.0
  3
AIGNBL02010002
  1

  0
ARC
  5
30
  8
_________1
 62
     7
 10
38.560245000000002
 20
203.87711100000001
 30
0.0
 40
12.448513
 50
235.51091700000001
 51
269.870407
  0
ENDBLK
  5
31
  8
_________1
  0
BLOCK
  8
_________1
  2
AIGNBL02010003
 70
     0
 10
0.0
 20
0.0
 30
0.0
  3
AIGNBL02010003
  1

  0
INSERT
  5
34
  8
_________1
 62
     7
  2
AIGNBL02020004
 10
0.0
 20
0.0
 30
0.0
  0
ENDBLK
  5
35
  8
_________1
  0
BLOCK
  8
_________1
  2
AIGNBL02010005
 70
     0
 10
0.0
 20
0.0
 30
0.0
  3
AIGNBL02010005
  1

  0
LINE
  5
38
  8
_________1
 62
     7
 10
58.593299999999992
 20
263.53699999999998
 30
0.0
 11
57.44959999999999
 21
261.55500000000001
 31
0.0
  0
LINE
  5
39
  8
_________1
 62
     7
 10
57.44959999999999
 20
261.55500000000001
 30
0.0
 11
59.4315
 21
262.69900000000001
 31
0.0
  0
LINE
  5
3A
  8
_________1
 62
     7
 10
59.4315
 20
262.69900000000001
 30
0.0
 11
58.593299999999992
 21
263.53699999999998
 31
0.0
  0
LINE
  5
3B
  8
_________1
 62
     7
 10
61.2502
 20
264.529
 30
0.0
 11
62.393999999999991
 21
266.50999999999999
 31
0.0
  0
LINE
  5
3C
  8
_________1
 62
     7
 10
62.393999999999991
 20
266.50999999999999
 30
0.0
 11
60.411999999999992
 21
265.36599999999999
 31
0.0
  0
LINE
  5
3D
  8
_________1
 62
     7
 10
60.411999999999992
 20
265.36599999999999
 30
0.0
 11
61.2502
 21
264.529
 31
0.0
  0
LINE
  5
3E
  8
_________1
 62
     7
 10
52.363199999999999
 20
256.47899999999998
 30
0.0
 11
62.393999999999991
 21
266.50999999999999
 31
0.0
  0
ENDBLK
  5
3F
  8
_________1
  0
BLOCK
  8
_________2
  2
AIGNBL03010002
 70
     0
 10
0.0
 20
0.0
 30
0.0
  3
AIGNBL03010002
  1

  0
LINE
  5
42
  8
_________2
 62
     7
 10
186.649
 20
51.052199999999999
 30
0.0
 11
184.46299999999999
 21
51.052199999999999
 31
0.0
  0
LINE
  5
43
  8
_________2
 62
     7
 10
187.142
 20
51.052199999999999
 30
0.0
 11
186.88900000000001
 21
51.052199999999999
 31
0.0
  0
LINE
  5
44
  8
_________2
 62
     7
 10
187.63399999999999
 20
51.052199999999999
 30
0.0
 11
190.559
 21
51.052199999999999
 31
0.0
  0
LINE
  5
45
  8
_________2
 62
     7
 10
187.142
 20
51.052199999999999
 30
0.0
 11
187.39400000000001
 21
51.052199999999999
 31
0.0
  0
LINE
  5
46
  8
_________2
 62
     7
 10
180.745
 20
51.052199999999999
 30
0.0
 11
178.55799999999999
 21
51.052199999999999
 31
0.0
  0
LINE
  5
47
  8
_________2
 62
     7
 10
181.23699999999999
 20
51.052199999999999
 30
0.0
 11
180.98599999999999
 21
51.052199999999999
 31
0.0
  0
LINE
  5
48
  8
_________2
 62
     7
 10
181.23699999999999
 20
51.544800000000002
 30
0.0
 11
181.23699999999999
 21
53.7318
 31
0.0
  0
LINE
  5
49
  8
_________2
 62
     7
 10
181.23699999999999
 20
51.052199999999999
 30
0.0
 11
181.23699999999999
 21
51.304299999999998
 31
0.0
  0
LINE
  5
4A
  8
_________2
 62
     7
 10
181.72999999999999
 20
51.052199999999999
 30
0.0
 11
183.917
 21
51.052199999999999
 31
0.0
  0
LINE
  5
4B
  8
_________2
 62
     7
 10
181.23699999999999
 20
51.052199999999999
 30
0.0
 11
181.489
 21
51.052199999999999
 31
0.0
  0
LINE
  5
4C
  8
_________2
 62
     7
 10
181.23699999999999
 20
50.560200000000002
 30
0.0
 11
181.23699999999999
 21
48.373199999999997
 31
0.0
  0
LINE
  5
4D
  8
_________2
 62
     7
 10
181.23699999999999
 20
51.052199999999999
 30
0.0
 11
181.23699999999999
 21
50.800699999999999
 31
0.0
  0
LINE
  5
4E
  8
_________2
 62
     7
 10
184.94799999999989
 20
49.832599999999999
 30
0.0
 11
190.12599999999989
 21
48.9679
 31
0.0
  0
LINE
  5
4F
  8
_________2
 62
     7
 10
184.94799999999989
 20
52.271700000000003
 30
0.0
 11
190.12599999999989
 21
53.137099999999997
 31
0.0
  0
LINE
  5
50
  8
_________2
 62
     7
 10
190.12599999999989
 20
48.9679
 30
0.0
 11
190.12599999999989
 21
53.137099999999997
 31
0.0
  0
LINE
  5
51
  8
_________2
 62
     7
 10
184.94799999999989
 20
49.832599999999999
 30
0.0
 11
184.94799999999989
 21
52.271700000000003
 31
0.0
  0
ARC
  5
52
  8
_________2
 62
     7
 10
181.190651
 20
51.004810999999989
 30
0.0
 40
1.2677780000000001
 50
2.1403449999999991
 51
87.892005999999995
  0
ARC
  5
53
  8
_________2
 62
     7
 10
181.28420199999999
 20
51.005241999999988
 30
0.0
 40
1.2673579999999991
 50
92.121564999999975
 51
177.87840600000001
  0
ARC
  5
54
  8
_________2
 62
     7
 10
181.28381400000001
 20
51.098689
 30
0.0
 40
1.2669559999999991
 50
182.10473099999999
 51
267.89529900000002
  0
ARC
  5
55
  8
_________2
 62
     7
 10
181.19038399999999
 20
51.099775000000001
 30
0.0
 40
1.268054
 50
272.11960599999998
 51
357.84804300000002
  0
ARC
  5
56
  8
_________2
 62
     7
 10
181.23728399999999
 20
51.05215900000001
 30
0.0
 40
2.0849849999999992
 50
0.00001
 51
89.999980000000008
  0
ARC
  5
57
  8
_________2
 62
     7
 10
181.317331
 20
50.972827000000002
 30
0.0
 40
2.1657969999999991
 50
92.118111999999996
 51
177.90079600000001
  0
ARC
  5
58
  8
_________2
 62
     7
 10
181.31728799999999
 20
51.132162999999998
 30
0.0
 40
2.1657779999999991
 50
182.11700400000001
 51
267.88302499999998
  0
ARC
  5
59
  8
_________2
 62
     7
 10
181.15730300000001
 20
51.132855999999997
 30
0.0
 40
2.166469999999999
 50
272.115725
 51
357.86534699999999
  0
ENDBLK
  5
5A
  8
_________2
  0
ENDSEC
  0
SECTION
  2
ENTITIES
  0
TEXT
  5
5B
  8
____
 62
     7
 10
58.404525000000007
 20
233.905
 30
0.0
 40
3.0923400000000001
  1
48
 41
0.5
 72
     1
 11
59.692999999999998
 21
233.905
 31
0.0
  0
TEXT
  5
5C
  8
____
 62
     7
 10
48.021324999999997
 20
161.27099999999999
 30
0.0
 40
3.0923400000000001
  1
83
 41
0.5
 72
     1
 11
49.309800000000003
 21
161.27099999999999
 31
0.0
  0
TEXT
  5
5D
  8
____
 62
     7
 10
32.483800000000002
 20
187.679
 30
0.0
 40
3.0923400000000001
  1
35%%d
 41
0.5
  0
TEXT
  5
5E
  8
____
 62
     7
 10
48.694499999999998
 20
57.977899999999991
 30
0.0
 40
3.0923400000000001
  1
G 1/2
 41
0.5
  0
TEXT
  5
5F
  8
____
 62
     7
 10
45.423999999999992
 20
257.17899999999997
 30
0.0
 40
3.0923400000000001
  1
%%c28
 41
0.5
  0
TEXT
  5
60
  8
____
 62
     7
 10
78.220200000000006
 20
128.863135
 30
0.0
 40
3.0923400000000001
  1
518
 50
90.0
 41
0.5
 72
     1
 11
78.220200000000006
 21
130.667
 31
0.0
  0
TEXT
  5
61
  8
____
 62
     7
 10
25.084099999999999
 20
197.28252499999991
 30
0.0
 40
3.0923400000000001
  1
29
 50
90.0
 41
0.5
 72
     1
 11
25.084099999999999
 21
198.571
 31
0.0
  0
TEXT
  5
62
  8
____
 62
     7
 10
17.849
 20
198.040525
 30
0.0
 40
3.0923400000000001
  1
35
 50
90.0
 41
0.5
 72
     1
 11
17.849
 21
199.32900000000001
 31
0.0
  0
TEXT
  5
63
  8
____
 62
     7
 10
46.233600000000003
 20
180.46899999999999
 30
0.0
 40
3.0923400000000001
  1
max.40
 50
90.0
 41
0.5
  0
TEXT
  5
64
  8
____
 62
     7
 10
78.340800000000002
 20
208.42582999999999
 30
0.0
 40
3.0923400000000001
  1
119
 50
90.0
 41
0.5
 72
     1
 11
78.340800000000002
 21
209.97200000000001
 31
0.0
  0
TEXT
  5
65
  8
____
 62
     7
 10
53.631242
 20
248.839
 30
0.0
 40
3.0923400000000001
  1
水栓金具取付穴
 41
0.5
 72
     1
 11
59.918999999999997
 21
248.839
 31
0.0
  0
LINE
  5
66
  8
_________1
 62
     7
 10
-30.718599999999999
 20
213.55500000000001
 30
0.0
 11
-30.369900000000001
 21
213.55500000000001
 31
0.0
  0
ARC
  5
67
  8
_________1
 62
     7
 10
-27.241434999999999
 20
209.53090499999999
 30
0.0
 40
7.0900369999999988
 50
186.105636
 51
199.15187399999999
  0
ARC
  5
68
  8
_________1
 62
     7
 10
-28.848984000000002
 20
209.30824000000001
 30
0.0
 40
5.4681569999999988
 50
167.23743200000001
 51
185.577313
  0
ARC
  5
69
  8
_________1
 62
     7
 10
-29.883610999999998
 20
209.487686
 30
0.0
 40
4.4197739999999994
 50
140.405282
 51
166.54324800000001
  0
ARC
  5
6A
  8
_________1
 62
     7
 10
-30.462916
 20
209.89543499999999
 30
0.0
 40
3.713905
 50
111.61998
 51
139.55641199999999
  0
ARC
  5
6B
  8
_________1
 62
     7
 10
-30.701284000000001
 20
210.370667
 30
0.0
 40
3.1846199999999998
 50
90.310823999999982
 51
110.783371
  0
LINE
  5
6C
  8
_________1
 62
     7
 10
-30.0199
 20
213.55500000000001
 30
0.0
 11
-30.369900000000001
 21
213.55500000000001
 31
0.0
  0
ARC
  5
6D
  8
_________1
 62
     7
 10
-33.499371999999987
 20
209.53075200000001
 30
0.0
 40
7.091888
 50
340.854646
 51
353.89722499999999
  0
ARC
  5
6E
  8
_________1
 62
     7
 10
-31.890720000000002
 20
209.30792700000001
 30
0.0
 40
5.4688970000000001
 50
354.42675600000001
 51
12.764151
  0
ARC
  5
6F
  8
_________1
 62
     7
 10
-30.856407000000001
 20
209.487257
 30
0.0
 40
4.4208489999999987
 50
13.459111
 51
39.590386000000002
  0
ARC
  5
70
  8
_________1
 62
     7
 10
-30.276333000000001
 20
209.895366
 30
0.0
 40
3.7141559999999991
 50
40.441656999999992
 51
68.373101000000005
  0
ARC
  5
71
  8
_________1
 62
     7
 10
-30.037179999999999
 20
210.372185
 30
0.0
 40
3.183101999999999
 50
69.211594999999988
 51
89.688783000000001
  0
ARC
  5
72
  8
_________1
 62
     7
 10
-28.878133999999999
 20
205.315898
 30
0.0
 40
2.0542829999999999
 50
0.10567
 51
28.660775000000012
  0
ARC
  5
73
  8
_________1
 62
     7
 10
-29.307711000000001
 20
205.116097
 30
0.0
 40
2.5272410000000001
 50
27.964444
 51
50.904277999999998
  0
ARC
  5
74
  8
_________1
 62
     7
 10
-29.759789999999999
 20
204.61091999999999
 30
0.0
 40
3.204556999999999
 50
50.327066000000002
 51
69.927591000000007
  0
ARC
  5
75
  8
_________1
 62
     7
 10
-30.175309000000009
 20
203.61880199999999
 30
0.0
 40
4.279312
 50
69.261099999999999
 51
84.816631999999984
  0
ARC
  5
76
  8
_________1
 62
     7
 10
-30.357277000000011
 20
202.34546399999999
 30
0.0
 40
5.5642760000000004
 50
84.135094999999993
 51
90.130123999999995
  0
ARC
  5
77
  8
_________1
 62
     7
 10
-31.861630000000002
 20
205.31628499999999
 30
0.0
 40
2.0533130000000002
 50
151.336715
 51
179.905056
  0
ARC
  5
78
  8
_________1
 62
     7
 10
-31.431336000000002
 20
205.11661699999999
 30
0.0
 40
2.5268419999999989
 50
129.10327000000001
 51
152.04408699999999
  0
ARC
  5
79
  8
_________1
 62
     7
 10
-30.979991999999999
 20
204.61275499999999
 30
0.0
 40
3.2026799999999991
 50
110.076115
 51
129.68383700000001
  0
ARC
  5
7A
  8
_________1
 62
     7
 10
-30.564368000000002
 20
203.62078099999999
 30
0.0
 40
4.2773409999999998
 50
95.185548999999995
 51
110.74396900000001
  0
ARC
  5
7B
  8
_________1
 62
     7
 10
-30.382563999999999
 20
202.348961
 30
0.0
 40
5.5607800000000003
 50
89.869652000000002
 51
95.866733999999994
  0
ARC
  5
7C
  8
_________1
 62
     7
 10
-29.388088
 20
209.08893
 30
0.0
 40
2.5642330000000002
 50
0.01673
 51
24.681041
  0
ARC
  5
7D
  8
_________1
 62
     7
 10
-29.116541000000002
 20
209.16277700000001
 30
0.0
 40
2.2871250000000001
 50
25.840713000000001
 51
56.888888999999999
  0
ARC
  5
7E
  8
_________1
 62
     7
 10
-29.545670999999999
 20
208.578397
 30
0.0
 40
3.0112969999999999
 50
56.123620000000003
 51
71.158350999999996
  0
ARC
  5
7F
  8
_________1
 62
     7
 10
-30.008026000000001
 20
207.363978
 30
0.0
 40
4.3101979999999998
 50
70.55511700000001
 51
83.022239999999996
  0
ARC
  5
80
  8
_________1
 62
     7
 10
-30.326965999999999
 20
205.35611800000001
 30
0.0
 40
6.3423489999999987
 50
82.365874000000005
 51
90.387985
  0
ARC
  5
81
  8
_________1
 62
     7
 10
-31.349893999999999
 20
209.08892800000001
 30
0.0
 40
2.5650469999999999
 50
155.32723799999999
 51
179.983203
  0
ARC
  5
82
  8
_________1
 62
     7
 10
-31.622105999999999
 20
209.16291899999999
 30
0.0
 40
2.287269999999999
 50
123.12316
 51
154.164973
  0
ARC
  5
83
  8
_________1
 62
     7
 10
-31.193649000000001
 20
208.57933499999999
 30
0.0
 40
3.0104109999999991
 50
108.847551
 51
123.883303
  0
ARC
  5
84
  8
_________1
 62
     7
 10
-30.731805000000001
 20
207.36675299999999
 30
0.0
 40
4.3074149999999989
 50
96.978995000000012
 51
109.45084
  0
ARC
  5
85
  8
_________1
 62
     7
 10
-30.412880000000001
 20
205.36002400000001
 30
0.0
 40
6.3384429999999989
 50
89.611604
 51
97.636475000000004
  0
ARC
  5
86
  8
_________1
 62
     7
 10
-26.207723000000001
 20
215.301174
 30
0.0
 40
0.8883499999999999
 50
0.003341
 51
11.8787
  0
ARC
  5
87
  8
_________1
 62
     7
 10
-25.896837000000001
 20
215.35904600000001
 30
0.0
 40
0.5722570000000001
 50
12.615603
 51
29.746753999999999
  0
LINE
  5
88
  8
_________1
 62
     7
 10
-25.319400000000002
 20
215.30099999999999
 30
0.0
 11
-24.762599999999999
 21
194.93700000000001
 31
0.0
  0
ARC
  5
89
  8
_________1
 62
     7
 10
-34.596769999999999
 20
215.301051
 30
0.0
 40
0.822653
 50
160.84065799999999
 51
179.987844
  0
ARC
  5
8A
  8
_________1
 62
     7
 10
-34.887563
 20
215.380787
 30
0.0
 40
0.522186
 50
149.860435
 51
158.63277199999999
  0
LINE
  5
8B
  8
_________1
 62
     7
 10
-35.419400000000003
 20
215.30099999999999
 30
0.0
 11
-35.976500000000001
 21
194.93700000000001
 31
0.0
  0
LINE
  5
8C
  8
_________1
 62
     7
 10
-25.200199999999999
 20
222.714
 30
0.0
 11
-25.200199999999999
 21
216.18700000000001
 31
0.0
  0
ARC
  5
8D
  8
_________1
 62
     7
 10
-26.038347999999999
 20
216.18958699999999
 30
0.0
 40
0.8381799999999998
 50
325.16331700000001
 51
359.84435200000001
  0
ARC
  5
8E
  8
_________1
 62
     7
 10
-26.419146000000001
 20
216.423126
 30
0.0
 40
1.2843990000000001
 50
310.24179199999998
 51
326.31613299999998
  0
ARC
  5
8F
  8
_________1
 62
     7
 10
-26.940587000000001
 20
216.991771
 30
0.0
 40
2.055547999999999
 50
301.53438
 51
311.09688999999997
  0
ARC
  5
90
  8
_________1
 62
     7
 10
-27.526230999999999
 20
217.905058
 30
0.0
 40
3.1403379999999999
 50
294.11918700000001
 51
301.92668500000002
  0
ARC
  5
91
  8
_________1
 62
     7
 10
-28.229077
 20
219.410606
 30
0.0
 40
4.8017279999999989
 50
288.13565399999999
 51
294.43258600000001
  0
ARC
  5
92
  8
_________1
 62
     7
 10
-29.037265999999999
 20
221.79839000000001
 30
0.0
 40
7.3224970000000003
 50
281.26216600000009
 51
288.32970499999999
  0
ARC
  5
93
  8
_________1
 62
     7
 10
-29.866392000000001
 20
225.60419300000001
 30
0.0
 40
11.21716
 50
275.49431700000002
 51
281.61917299999999
  0
ARC
  5
94
  8
_________1
 62
     7
 10
-30.323360000000001
 20
229.640534
 30
0.0
 40
15.278862999999999
 50
269.82542999999998
 51
275.75082200000003
  0
LINE
  5
95
  8
_________1
 62
     7
 10
-35.5383
 20
222.714
 30
0.0
 11
-35.5383
 21
216.18700000000001
 31
0.0
  0
ARC
  5
96
  8
_________1
 62
     7
 10
-34.700431000000002
 20
216.189413
 30
0.0
 40
0.837851
 50
180.14387199999999
 51
214.83790099999999
  0
ARC
  5
97
  8
_________1
 62
     7
 10
-34.319474999999997
 20
216.42280099999991
 30
0.0
 40
1.2841180000000001
 50
213.67483200000001
 51
229.75061600000001
  0
ARC
  5
98
  8
_________1
 62
     7
 10
-33.797606999999999
 20
216.991882
 30
0.0
 40
2.055879
 50
228.89728500000001
 51
238.45655600000001
  0
ARC
  5
99
  8
_________1
 62
     7
 10
-33.212353999999998
 20
217.904482
 30
0.0
 40
3.1398799999999989
 50
238.06685499999989
 51
245.87375399999999
  0
ARC
  5
9A
  8
_________1
 62
     7
 10
-32.51032
 20
219.40794299999999
 30
0.0
 40
4.7990360000000001
 50
245.56129000000001
 51
251.860319
  0
ARC
  5
9B
  8
_________1
 62
     7
 10
-31.702196000000001
 20
221.79468700000001
 30
0.0
 40
7.3187990000000003
 50
251.66551899999999
 51
258.73479500000002
  0
ARC
  5
9C
  8
_________1
 62
     7
 10
-30.873144
 20
225.599605
 30
0.0
 40
11.212583
 50
258.37819000000002
 51
264.50399399999998
  0
ARC
  5
9D
  8
_________1
 62
     7
 10
-30.416477
 20
229.63243600000001
 30
0.0
 40
15.270765000000001
 50
264.24766899999997
 51
270.174712
  0
ARC
  5
9E
  8
_________1
 62
     7
 10
-26.160951000000001
 20
222.712174
 30
0.0
 40
0.9614709999999999
 50
0.124115
 51
32.930993000000001
  0
ARC
  5
9F
  8
_________1
 62
     7
 10
-26.544267000000001
 20
222.49160499999999
 30
0.0
 40
1.403297999999999
 50
31.981586
 51
47.644830000000013
  0
ARC
  5
A0
  8
_________1
 62
     7
 10
-27.146279
 20
221.87335899999999
 30
0.0
 40
2.2659379999999998
 50
46.92796899999999
 51
59.954743000000008
  0
ARC
  5
A1
  8
_________1
 62
     7
 10
-27.904684
 20
220.66899599999999
 30
0.0
 40
3.6885809999999992
 50
59.123792000000009
 51
66.296362000000002
  0
ARC
  5
A2
  8
_________1
 62
     7
 10
-28.721737999999998
 20
218.860274
 30
0.0
 40
5.6732129999999987
 50
66.084193999999997
 51
74.779868999999991
  0
ARC
  5
A3
  8
_________1
 62
     7
 10
-29.705933999999999
 20
215.526679
 30
0.0
 40
9.1485620000000001
 50
74.313201000000007
 51
82.597531000000004
  0
ARC
  5
A4
  8
_________1
 62
     7
 10
-30.316049
 20
211.599662
 30
0.0
 40
13.121831
 50
82.164900999999986
 51
90.235192999999995
  0
ARC
  5
A5
  8
_________1
 62
     7
 10
-34.577236999999997
 20
222.71217100000001
 30
0.0
 40
0.961734
 50
147.078925
 51
179.87572900000001
  0
ARC
  5
A6
  8
_________1
 62
     7
 10
-34.194437999999998
 20
222.491984
 30
0.0
 40
1.402922999999999
 50
132.36132900000001
 51
148.027084
  0
ARC
  5
A7
  8
_________1
 62
     7
 10
-33.592627
 20
221.87425999999999
 30
0.0
 40
2.265047
 50
120.051738
 51
133.08123800000001
  0
ARC
  5
A8
  8
_________1
 62
     7
 10
-32.833885000000002
 20
220.66953000000001
 30
0.0
 40
3.68818
 50
113.710103
 51
120.881964
  0
ARC
  5
A9
  8
_________1
 62
     7
 10
-32.017429
 20
218.86247299999999
 30
0.0
 40
5.6710500000000001
 50
105.224428
 51
113.9213189999999
  0
ARC
  5
AA
  8
_________1
 62
     7
 10
-31.033835
 20
215.53192799999999
 30
0.0
 40
9.1433029999999995
 50
97.404112999999995
 51
105.691095
  0
ARC
  5
AB
  8
_________1
 62
     7
 10
-30.423756000000001
 20
211.60621499999999
 30
0.0
 40
13.115277000000001
 50
89.764776999999995
 51
97.837038000000007
  0
INSERT
  5
AC
  8
_________1
 62
     7
  2
AIGNBL02010002
 10
0.0
 20
0.0
 30
0.0
  0
LINE
  5
AD
  8
_________1
  6
AIGENLINE001
 62
     7
 10
40.8093
 20
207.07599999999999
 30
0.0
 11
38.011499999999998
 21
203.02500000000001
 31
0.0
  0
LINE
  5
AE
  8
_________1
 62
     7
 10
37.652900000000002
 20
202.506
 30
0.0
 11
31.148900000000001
 21
193.09
 31
0.0
  0
LINE
  5
AF
  8
_________1
 62
     7
 10
53.925199999999997
 20
233.85400000000001
 30
0.0
 11
53.925199999999997
 21
197.37100000000001
 31
0.0
  0
LINE
  5
B0
  8
_________1
 62
     7
 10
65.883200000000002
 20
233.85400000000001
 30
0.0
 11
65.883200000000002
 21
197.37100000000001
 31
0.0
  0
LINE
  5
B1
  8
_________1
 62
     7
 10
38.5321
 20
202.67699999999999
 30
0.0
 11
38.5321
 21
159.601
 31
0.0
  0
LINE
  5
B2
  8
_________1
 62
     7
 10
53.925199999999997
 20
233.10300000000001
 30
0.0
 11
65.883200000000002
 21
233.10300000000001
 31
0.0
  0
LINE
  5
B3
  8
_________1
 62
     7
 10
63.672499999999999
 20
232.511
 30
0.0
 11
65.883200000000002
 21
233.10300000000001
 31
0.0
  0
LINE
  5
B4
  8
_________1
 62
     7
 10
65.883200000000002
 20
233.10300000000001
 30
0.0
 11
63.672499999999999
 21
233.69499999999999
 31
0.0
  0
LINE
  5
B5
  8
_________1
 62
     7
 10
63.672499999999999
 20
233.69499999999999
 30
0.0
 11
63.672499999999999
 21
232.511
 31
0.0
  0
LINE
  5
B6
  8
_________1
 62
     7
 10
56.136299999999999
 20
233.69499999999999
 30
0.0
 11
53.925199999999997
 21
233.10300000000001
 31
0.0
  0
LINE
  5
B7
  8
_________1
 62
     7
 10
53.925199999999997
 20
233.10300000000001
 30
0.0
 11
56.136299999999999
 21
232.511
 31
0.0
  0
LINE
  5
B8
  8
_________1
 62
     7
 10
56.136299999999999
 20
232.511
 30
0.0
 11
56.136299999999999
 21
233.69499999999999
 31
0.0
  0
LINE
  5
B9
  8
_________1
 62
     7
 10
38.5321
 20
160.47
 30
0.0
 11
59.918999999999997
 21
160.47
 31
0.0
  0
LINE
  5
BA
  8
_________1
 62
     7
 10
25.273599999999998
 20
202.20599999999999
 30
0.0
 11
39.904600000000002
 21
202.20599999999999
 31
0.0
  0
LINE
  5
BB
  8
_________1
 62
     7
 10
18.152200000000001
 20
203.68700000000001
 30
0.0
 11
37.529200000000003
 21
203.68700000000001
 31
0.0
  0
LINE
  5
BC
  8
_________1
  6
AIGENLINE001
 62
     7
 10
-34.9636
 20
203.68700000000001
 30
0.0
 11
-25.8506
 21
203.68700000000001
 31
0.0
  0
LINE
  5
BD
  8
_________1
 62
     7
 10
18.271000000000001
 20
194.93700000000001
 30
0.0
 11
52.921999999999997
 21
194.93700000000001
 31
0.0
  0
LINE
  5
BE
  8
_________1
 62
     7
 10
46.198500000000003
 20
189.93700000000001
 30
0.0
 11
52.808300000000003
 21
189.93700000000001
 31
0.0
  0
LINE
  5
BF
  8
_________1
 62
     7
 10
36.893599999999999
 20
206.666
 30
0.0
 11
36.619
 21
206.27500000000001
 31
0.0
  0
LINE
  5
C0
  8
_________1
 62
     7
 10
36.619
 20
206.27500000000001
 30
0.0
 11
36.823
 21
206.13399999999999
 31
0.0
  0
LINE
  5
C1
  8
_________1
 62
     7
 10
36.823
 20
206.13399999999999
 30
0.0
 11
36.28070000000001
 21
205.35599999999999
 31
0.0
  0
LINE
  5
C2
  8
_________1
 62
     7
 10
36.28070000000001
 20
205.35599999999999
 30
0.0
 11
40.779699999999991
 21
202.20599999999999
 31
0.0
  0
LINE
  5
C3
  8
_________1
 62
     7
 10
40.779699999999991
 20
202.20599999999999
 30
0.0
 11
41.325699999999998
 21
202.98099999999999
 31
0.0
  0
LINE
  5
C4
  8
_________1
 62
     7
 10
41.325699999999998
 20
202.98099999999999
 30
0.0
 11
41.530399999999993
 21
202.84
 31
0.0
  0
LINE
  5
C5
  8
_________1
 62
     7
 10
41.530399999999993
 20
202.84
 30
0.0
 11
41.801499999999997
 21
203.227
 31
0.0
  0
LINE
  5
C6
  8
_________1
 62
     7
 10
56.581400000000002
 20
217.05199999999999
 30
0.0
 11
56.380899999999997
 21
217.60900000000001
 31
0.0
  0
LINE
  5
C7
  8
_________1
 62
     7
 10
56.380899999999997
 20
217.60900000000001
 30
0.0
 11
47.93549999999999
 21
214.53299999999999
 31
0.0
  0
LINE
  5
C8
  8
_________1
 62
     7
 10
47.93549999999999
 20
214.53299999999999
 30
0.0
 11
48.136400000000002
 21
213.977
 31
0.0
  0
LINE
  5
C9
  8
_________1
 62
     7
 10
48.136400000000002
 20
213.977
 30
0.0
 11
56.581400000000002
 21
217.05199999999999
 31
0.0
  0
ARC
  5
CA
  8
_________1
 62
     7
 10
46.120717999999989
 20
217.51458099999999
 30
0.0
 40
0.048889
 50
287.12717700000002
 51
311.14402600000011
  0
ARC
  5
CB
  8
_________1
 62
     7
 10
46.092391999999997
 20
217.546693
 30
0.0
 40
0.091709
 50
311.270622
 51
331.62380400000001
  0
ARC
  5
CC
  8
_________1
 62
     7
 10
45.964008
 20
217.618146
 30
0.0
 40
0.238633
 50
331.17911600000002
 51
343.823127
  0
ARC
  5
CD
  8
_________1
 62
     7
 10
45.608801
 20
217.72352799999999
 30
0.0
 40
0.6091400000000001
 50
343.61168400000003
 51
351.85128500000002
  0
ARC
  5
CE
  8
_________1
 62
     7
 10
44.746332000000002
 20
217.85197099999999
 30
0.0
 40
1.4811149999999991
 50
351.66183899999999
 51
357.02243199999998
  0
ARC
  5
CF
  8
_________1
 62
     7
 10
43.045684999999999
 20
217.94697300000001
 30
0.0
 40
3.1844079999999999
 50
356.9048840000001
 51
0.576394
  0
ARC
  5
D0
  8
_________1
 62
     7
 10
39.343471999999998
 20
217.91158799999999
 30
0.0
 40
6.8867899999999986
 50
0.560912
 51
3.2003859999999991
  0
LINE
  5
D1
  8
_________1
 62
     7
 10
46.219499999999996
 20
218.29599999999999
 30
0.0
 11
45.211799999999997
 21
221.065
 31
0.0
  0
LINE
  5
D2
  8
_________1
 62
     7
 10
45.211799999999997
 20
221.065
 30
0.0
 11
45.198
 21
221.30099999999999
 31
0.0
  0
LINE
  5
D3
  8
_________1
 62
     7
 10
45.198
 20
221.30099999999999
 30
0.0
 11
45.324800000000003
 21
221.49199999999999
 31
0.0
  0
LINE
  5
D4
  8
_________1
 62
     7
 10
45.324800000000003
 20
221.49199999999999
 30
0.0
 11
45.402000000000001
 21
221.53399999999999
 31
0.0
  0
LINE
  5
D5
  8
_________1
 62
     7
 10
45.206699999999991
 20
221.065
 30
0.0
 11
41.501800000000003
 21
219.614
 31
0.0
  0
LINE
  5
D6
  8
_________1
 62
     7
 10
42.478099999999998
 20
216.93299999999999
 30
0.0
 11
46.219499999999996
 21
218.29599999999999
 31
0.0
  0
ARC
  5
D7
  8
_________1
 62
     7
 10
45.52178099999999
 20
216.98746499999999
 30
0.0
 40
0.8003869999999999
 50
50.190626000000002
 51
62.429227000000012
  0
ARC
  5
D8
  8
_________1
 62
     7
 10
45.795141999999998
 20
217.31780000000001
 30
0.0
 40
0.371618
 50
23.815951999999999
 51
49.959063
  0
LINE
  5
D9
  8
_________1
 62
     7
 10
46.135100000000001
 20
217.46799999999999
 30
0.0
 11
47.244799999999991
 21
214.417
 31
0.0
  0
LINE
  5
DA
  8
_________1
 62
     7
 10
47.244799999999991
 20
214.417
 30
0.0
 11
47.407099999999993
 21
214.34299999999999
 31
0.0
  0
LINE
  5
DB
  8
_________1
 62
     7
 10
47.407099999999993
 20
214.34299999999999
 30
0.0
 11
56.909700000000001
 21
217.79900000000001
 31
0.0
  0
LINE
  5
DC
  8
_________1
 62
     7
 10
56.909700000000001
 20
217.79900000000001
 30
0.0
 11
56.983400000000003
 21
217.96100000000001
 31
0.0
  0
LINE
  5
DD
  8
_________1
 62
     7
 10
56.983400000000003
 20
217.96100000000001
 30
0.0
 11
54.608699999999992
 21
224.48599999999999
 31
0.0
  0
ARC
  5
DE
  8
_________1
 62
     7
 10
54.357632000000002
 20
224.394385
 30
0.0
 40
0.267372
 50
20.095976
 51
43.226824999999991
  0
ARC
  5
DF
  8
_________1
 62
     7
 10
54.099567000000008
 20
224.17245600000001
 30
0.0
 40
0.6075930000000001
 50
41.80860599999999
 51
63.318896999999993
  0
ARC
  5
E0
  8
_________1
 62
     7
 10
54.871974000000002
 20
181.67222799999999
 30
0.0
 40
43.046023999999989
 50
90.664967000000004
 51
90.983698000000004
  0
ARC
  5
E1
  8
_________1
 62
     7
 10
54.151394999999987
 20
224.56034500000001
 30
0.0
 40
0.152681
 50
96.936853000000013
 51
110.56579600000001
  0
ARC
  5
E2
  8
_________1
 62
     7
 10
55.658479000000007
 20
219.61149
 30
0.0
 40
5.3256290000000002
 50
107.041104
 51
109.61247400000001
  0
ARC
  5
E3
  8
_________1
 62
     7
 10
79.589341000000005
 20
151.098308
 30
0.0
 40
77.897856000000004
 50
109.278233
 51
109.860291
  0
ARC
  5
E4
  8
_________1
 62
     7
 10
166.47746100000001
 20
-98.711695000000006
 30
0.0
 40
342.38288299999999
 50
109.33363199999999
 51
110.27670999999999
  0
ARC
  5
E5
  8
_________1
 62
     7
 10
128.50121899999999
 20
5.022600999999999
 30
0.0
 40
231.91641000000001
 50
110.357434
 51
111.11231599999989
  0
ARC
  5
E6
  8
_________1
 62
     7
 10
18.877569999999999
 20
288.89564799999999
 30
0.0
 40
72.388128000000009
 50
290.52031899999997
 51
291.12413199999997
  0
ARC
  5
E7
  8
_________1
 62
     7
 10
63.398755000000001
 20
168.802729
 30
0.0
 40
55.692526999999991
 50
110.107675
 51
111.96732299999999
  0
ARC
  5
E8
  8
_________1
 62
     7
 10
51.981628000000001
 20
197.11815100000001
 30
0.0
 40
25.161987
 50
111.97634499999999
 51
114.084807
  0
ARC
  5
E9
  8
_________1
 62
     7
 10
41.840105999999992
 20
219.81029799999999
 30
0.0
 40
0.306731
 50
114.41759999999999
 51
135.80085299999999
  0
ARC
  5
EA
  8
_________1
 62
     7
 10
42.076681999999991
 20
219.563782
 30
0.0
 40
0.6483050000000001
 50
134.757732
 51
153.81952100000001
  0
ARC
  5
EB
  8
_________1
 62
     7
 10
41.595120999999992
 20
219.82157100000001
 30
0.0
 40
0.104137
 50
164.263868
 51
180.13430199999999
  0
ARC
  5
EC
  8
_________1
 62
     7
 10
41.892935999999999
 20
219.81649999999999
 30
0.0
 40
0.401981
 50
179.31201799999999
 51
188.43295499999999
  0
ARC
  5
ED
  8
_________1
 62
     7
 10
42.818170000000002
 20
219.94821200000001
 30
0.0
 40
1.3365370000000001
 50
188.20150000000001
 51
193.46054399999991
  0
ARC
  5
EE
  8
_________1
 62
     7
 10
45.320914000000002
 20
220.53851399999999
 30
0.0
 40
3.9079499999999991
 50
193.33606
 51
196.70379799999989
  0
ARC
  5
EF
  8
_________1
 62
     7
 10
51.128014999999998
 20
222.256396
 30
0.0
 40
9.9637989999999999
 50
196.567485
 51
198.54009600000001
  0
ARC
  5
F0
  8
_________1
 62
     7
 10
62.766727000000003
 20
226.14174199999999
 30
0.0
 40
22.233902
 50
198.49619699999991
 51
199.844179
  0
ARC
  5
F1
  8
_________1
 62
     7
 10
86.134872999999999
 20
234.55705
 30
0.0
 40
47.071122000000003
 50
199.823463
 51
200.76383300000001
  0
ARC
  5
F2
  8
_________1
 62
     7
 10
-752.97303299999987
 20
-85.766322999999986
 30
0.0
 40
851.09888999999987
 50
20.833704999999998
 51
20.901192000000009
  0
ARC
  5
F3
  8
_________1
 62
     7
 10
42.720910999999987
 20
217.020782
 30
0.0
 40
0.258226
 50
199.912879
 51
223.03668300000001
  0
ARC
  5
F4
  8
_________1
 62
     7
 10
42.974082999999993
 20
217.23881800000001
 30
0.0
 40
0.592228
 50
221.73865499999999
 51
244.701582
  0
ARC
  5
F5
  8
_________1
 62
     7
 10
42.767590000000013
 20
216.923474
 30
0.0
 40
0.224962
 50
258.04857900000002
 51
269.455399
  0
ARC
  5
F6
  8
_________1
 62
     7
 10
42.774847999999992
 20
217.203225
 30
0.0
 40
0.504791
 50
268.93346500000001
 51
276.94596300000001
  0
ARC
  5
F7
  8
_________1
 62
     7
 10
42.697059000000003
 20
217.867392
 30
0.0
 40
1.173494
 50
276.79452700000002
 51
282.938785
  0
ARC
  5
F8
  8
_________1
 62
     7
 10
42.359062000000002
 20
219.37598499999999
 30
0.0
 40
2.7194780000000001
 50
282.76236599999999
 51
286.537058
  0
ARC
  5
F9
  8
_________1
 62
     7
 10
41.473852000000001
 20
222.370071
 30
0.0
 40
5.8416790000000001
 50
286.50146799999999
 51
289.13726200000002
  0
ARC
  5
FA
  8
_________1
 62
     7
 10
38.990481000000003
 20
229.54644099999999
 30
0.0
 40
13.435585
 50
289.10947399999998
 51
290.83592499999997
  0
ARC
  5
FB
  8
_________1
 62
     7
 10
204.59105199999999
 20
-201.22936300000001
 30
0.0
 40
448.074344
 50
110.837369
 51
111.033706
  0
ARC
  5
FC
  8
_________1
 62
     7
 10
47.460772999999989
 20
211.11771400000001
 30
0.0
 40
6.805674999999999
 50
107.081687
 51
109.37059499999999
  0
ARC
  5
FD
  8
_________1
 62
     7
 10
46.316890000000001
 20
214.840857
 30
0.0
 40
2.9107729999999989
 50
103.09999000000001
 51
107.08551300000001
  0
ARC
  5
FE
  8
_________1
 62
     7
 10
45.922266999999998
 20
216.544714
 30
0.0
 40
1.1618170000000001
 50
97.054806999999997
 51
103.19015400000001
  0
ARC
  5
FF
  8
_________1
 62
     7
 10
45.833241999999991
 20
217.310395
 30
0.0
 40
0.391041
 50
81.323169999999976
 51
97.888386999999994
  0
LINE
  5
100
  8
_________1
 62
     7
 10
47.695799999999998
 20
213.55699999999999
 30
0.0
 11
57.201500000000003
 21
217.017
 31
0.0
  0
ARC
  5
101
  8
_________1
 62
     7
 10
26.134222999999999
 20
208.97184100000001
 30
0.0
 40
25.258661
 50
348.60378100000003
 51
352.19563499999998
  0
ARC
  5
102
  8
_________1
 62
     7
 10
37.635311999999999
 20
207.32916
 30
0.0
 40
13.641197999999999
 50
352.47167400000001
 51
359.033343
  0
ARC
  5
103
  8
_________1
 62
     7
 10
42.942912999999997
 20
207.17226500000001
 30
0.0
 40
8.3319770000000002
 50
359.49635599999999
 51
10.112933
  0
ARC
  5
104
  8
_________1
 62
     7
 10
44.937676000000003
 20
207.452202
 30
0.0
 40
6.3194929999999996
 50
10.789947
 51
35.035212000000001
  0
ARC
  5
105
  8
_________1
 62
     7
 10
43.048023999999991
 20
206.20711900000001
 30
0.0
 40
8.5817649999999972
 50
34.598978000000002
 51
43.480477
  0
ARC
  5
106
  8
_________1
 62
     7
 10
39.753557999999998
 20
203.20597900000001
 30
0.0
 40
13.03767
 50
43.088066999999988
 51
49.746737000000003
  0
ARC
  5
107
  8
_________1
 62
     7
 10
35.400784000000002
 20
198.27961099999999
 30
0.0
 40
19.610565000000001
 50
49.341320000000003
 51
51.174066000000003
  0
ARC
  5
108
  8
_________1
 62
     7
 10
40.648578000000001
 20
196.933336
 30
0.0
 40
15.973958
 50
63.133398000000007
 51
67.388019999999983
  0
ARC
  5
109
  8
_________1
 62
     7
 10
43.86515399999999
 20
203.400069
 30
0.0
 40
8.7517789999999991
 50
56.750860000000003
 51
62.786222000000002
  0
ARC
  5
10A
  8
_________1
 62
     7
 10
45.832771999999999
 20
206.464313
 30
0.0
 40
5.1104789999999989
 50
47.602863999999997
 51
56.363427000000001
  0
ARC
  5
10B
  8
_________1
 62
     7
 10
47.092790999999991
 20
207.88866400000001
 30
0.0
 40
3.209163999999999
 50
35.010508000000002
 51
47.069374999999987
  0
ARC
  5
10C
  8
_________1
 62
     7
 10
47.764887999999999
 20
208.39493100000001
 30
0.0
 40
2.3684029999999989
 50
359.49934000000002
 51
34.307566999999999
  0
ARC
  5
10D
  8
_________1
 62
     7
 10
46.727748999999989
 20
208.37373099999999
 30
0.0
 40
3.4054530000000001
 50
348.49557600000003
 51
0.008485
  0
ARC
  5
10E
  8
_________1
 62
     7
 10
44.661716999999989
 20
208.74119999999999
 30
0.0
 40
5.5035099999999986
 50
340.89434399999999
 51
349.03663799999998
  0
ARC
  5
10F
  8
_________1
 62
     7
 10
41.201905999999987
 20
209.85583399999999
 30
0.0
 40
9.1379190000000001
 50
337.22238800000002
 51
341.39094
  0
ARC
  5
110
  8
_________1
 62
     7
 10
35.825214000000003
 20
212.077123
 30
0.0
 40
14.955329000000001
 50
333.84902499999998
 51
337.35093699999999
  0
ARC
  5
111
  8
_________1
 62
     7
 10
26.844456999999998
 20
216.401285
 30
0.0
 40
24.922718
 50
332.54623500000002
 51
334.02521300000001
  0
LINE
  5
112
  8
_________1
 62
     7
 10
42.911200000000001
 20
202.709
 30
0.0
 11
36.45300000000001
 21
207.93100000000001
 31
0.0
  0
LINE
  5
113
  8
_________1
 62
     7
 10
53.925199999999997
 20
194.93700000000001
 30
0.0
 11
50.8949
 21
203.98099999999999
 31
0.0
  0
ARC
  5
114
  8
_________1
 62
     7
 10
49.439440999999988
 20
203.43066400000001
 30
0.0
 40
1.555990999999999
 50
20.709737000000001
 51
107.928648
  0
LINE
  5
115
  8
_________1
 62
     7
 10
48.960500000000003
 20
204.911
 30
0.0
 11
42.911200000000001
 21
202.709
 31
0.0
  0
ARC
  5
116
  8
_________1
 62
     7
 10
42.817028000000001
 20
202.96634499999999
 30
0.0
 40
0.274048
 50
280.63527199999999
 51
290.092896
  0
ARC
  5
117
  8
_________1
 62
     7
 10
42.765922999999987
 20
203.23608899999999
 30
0.0
 40
0.548589
 50
262.736176
 51
280.68164300000001
  0
ARC
  5
118
  8
_________1
 62
     7
 10
42.763446999999999
 20
203.36655200000001
 30
0.0
 40
0.677957
 50
248.15147400000009
 51
264.33799599999998
  0
ARC
  5
119
  8
_________1
 62
     7
 10
42.635762
 20
203.03576799999999
 30
0.0
 40
0.323447
 50
235.589147
 51
247.338662
  0
LINE
  5
11A
  8
_________1
 62
     7
 10
42.453000000000003
 20
202.76900000000001
 30
0.0
 11
36.3369
 21
207.053
 31
0.0
  0
ARC
  5
11B
  8
_________1
 62
     7
 10
36.624431000000001
 20
207.45037099999999
 30
0.0
 40
0.4902930000000001
 50
169.16960399999999
 51
234.08867100000001
  0
ARC
  5
11C
  8
_________1
 62
     7
 10
36.652045999999999
 20
207.453777
 30
0.0
 40
0.5168470000000001
 50
112.65593200000001
 51
170.11573799999999
  0
LINE
  5
11D
  8
_________1
 62
     7
 10
36.45300000000001
 20
207.93100000000001
 30
0.0
 11
46.772799999999989
 21
211.68600000000001
 31
0.0
  0
ARC
  5
11E
  8
_________1
 62
     7
 10
45.729027000000002
 20
213.777727
 30
0.0
 40
2.337454999999999
 50
296.5222740000001
 51
312.15591599999999
  0
ARC
  5
11F
  8
_________1
 62
     7
 10
46.24937899999999
 20
213.162226
 30
0.0
 40
1.532179999999999
 50
313.178541
 51
339.977847
  0
ARC
  5
120
  8
_________1
 62
     7
 10
46.369283000000003
 20
213.081256
 30
0.0
 40
1.3922419999999991
 50
341.41934199999997
 51
9.6268539999999998
  0
ARC
  5
121
  8
_________1
 62
     7
 10
46.292366999999992
 20
213.091328
 30
0.0
 40
1.4665669999999991
 50
8.7363320000000009
 51
12.865845999999999
  0
ARC
  5
122
  8
_________1
 62
     7
 10
48.544941999999999
 20
213.646748
 30
0.0
 40
0.854062
 50
182.138161
 51
195.54333099999999
  0
ARC
  5
123
  8
_________1
 62
     7
 10
48.145493999999999
 20
213.62907200000001
 30
0.0
 40
0.4542410000000001
 50
160.70439400000001
 51
181.79002299999999
  0
ARC
  5
124
  8
_________1
 62
     7
 10
47.764299999999999
 20
213.732944
 30
0.0
 40
0.066304
 50
113.683871
 51
135.795389
  0
ARC
  5
125
  8
_________1
 62
     7
 10
48.263210000000001
 20
212.810023
 30
0.0
 40
1.1152340000000001
 50
112.903842
 51
118.1148899999999
  0
ARC
  5
126
  8
_________1
 62
     7
 10
51.604937999999997
 20
205.11804100000001
 30
0.0
 40
9.5017050000000012
 50
111.280968
 51
113.41431
  0
ARC
  5
127
  8
_________1
 62
     7
 10
66.03269499999999
 20
168.55484899999999
 30
0.0
 40
48.808464000000001
 50
110.58920999999999
 51
111.484801
  0
ARC
  5
128
  8
_________1
 62
     7
 10
110.394976
 20
50.969003999999991
 30
0.0
 40
174.48437300000001
 50
110.18667499999999
 51
110.647588
  0
ARC
  5
129
  8
_________1
 62
     7
 10
225.055643
 20
-260.55781300000001
 30
0.0
 40
506.44223399999998
 50
109.912747
 51
110.19976699999999
  0
ARC
  5
12A
  8
_________1
 62
     7
 10
660.77975300000003
 20
-1463.7449999999999
 30
0.0
 40
1786.097
 50
109.761804
 51
109.908923
  0
LINE
  5
12B
  8
_________1
 62
     7
 10
56.881100000000004
 20
217.16200000000001
 30
0.0
 11
57.103000000000002
 21
217.137
 31
0.0
  0
ARC
  5
12C
  8
_________1
 62
     7
 10
24.209195000000001
 20
190.080692
 30
0.0
 40
42.591695999999992
 50
39.229515999999997
 51
39.438631999999998
  0
LINE
  5
12D
  8
_________1
 62
     7
 10
57.201500000000003
 20
217.017
 30
0.0
 11
65.883200000000002
 21
194.93700000000001
 31
0.0
  0
LINE
  5
12E
  8
_________1
 62
     7
 10
65.883200000000002
 20
194.93700000000001
 30
0.0
 11
53.925199999999997
 21
194.93700000000001
 31
0.0
  0
ARC
  5
12F
  8
_________1
 62
     7
 10
45.687505000000002
 20
217.77241100000001
 30
0.0
 40
0.068608
 50
276.12899599999997
 51
295.07132899999999
  0
ARC
  5
130
  8
_________1
 62
     7
 10
45.628239999999998
 20
217.90852699999999
 30
0.0
 40
0.21705
 50
294.01589999999999
 51
306.78039200000001
  0
ARC
  5
131
  8
_________1
 62
     7
 10
45.365833000000002
 20
218.26790399999999
 30
0.0
 40
0.662023
 50
306.34713499999998
 51
314.05559000000011
  0
ARC
  5
132
  8
_________1
 62
     7
 10
44.659745999999998
 20
219.00816
 30
0.0
 40
1.6850169999999991
 50
313.80733600000002
 51
318.84011600000002
  0
ARC
  5
133
  8
_________1
 62
     7
 10
43.595401000000003
 20
219.95228299999999
 30
0.0
 40
3.1077400000000002
 50
318.65032200000002
 51
326.10678899999999
  0
ARC
  5
134
  8
_________1
 62
     7
 10
45.750802
 20
218.51608400000001
 30
0.0
 40
0.5177890000000001
 50
325.02286200000009
 51
334.85454300000009
  0
LINE
  5
135
  8
_________1
 62
     7
 10
47.244799999999991
 20
214.417
 30
0.0
 11
56.983400000000003
 21
217.96100000000001
 31
0.0
  0
LINE
  5
136
  8
_________1
 62
     7
 10
45.211799999999997
 20
221.065
 30
0.0
 11
45.465400000000002
 21
221.16
 31
0.0
  0
LINE
  5
137
  8
_________1
 62
     7
 10
54.608699999999992
 20
224.48599999999999
 30
0.0
 11
45.465400000000002
 21
221.16
 31
0.0
  0
LINE
  5
138
  8
_________1
 62
     7
 10
46.790399999999991
 20
211.679
 30
0.0
 11
46.772799999999989
 21
211.68600000000001
 31
0.0
  0
LINE
  5
139
  8
_________1
 62
     7
 10
47.695799999999998
 20
213.55699999999999
 30
0.0
 11
47.685400000000001
 21
213.55699999999999
 31
0.0
  0
ARC
  5
13A
  8
_________1
 62
     7
 10
-28.987590999999998
 20
205.35046199999999
 30
0.0
 40
2.188067999999999
 50
317.969199
 51
359.19410800000009
  0
LINE
  5
13B
  8
_________1
 62
     7
 10
-26.799700000000001
 20
205.31999999999999
 30
0.0
 11
-26.799700000000001
 21
209.08799999999999
 31
0.0
  0
LINE
  5
13C
  8
_________1
 62
     7
 10
-33.91490000000001
 20
209.09
 30
0.0
 11
-33.91490000000001
 21
205.31999999999999
 31
0.0
  0
ARC
  5
13D
  8
_________1
 62
     7
 10
-32.051540000000003
 20
205.28831500000001
 30
0.0
 40
1.8636639999999991
 50
179.035438
 51
202.855491
  0
ARC
  5
13E
  8
_________1
 62
     7
 10
-31.492789999999999
 20
205.490701
 30
0.0
 40
2.4573439999999991
 50
202.14371
 51
220.785764
  0
LINE
  5
13F
  8
_________1
 62
     7
 10
-35.976500000000001
 20
194.93700000000001
 30
0.0
 11
-24.738499999999998
 21
194.93700000000001
 31
0.0
  0
LINE
  5
140
  8
_________1
 62
     7
 10
-30.585899999999999
 20
203.80099999999999
 30
0.0
 11
-30.5136
 21
203.72900000000001
 31
0.0
  0
LINE
  5
141
  8
_________1
 62
     7
 10
-30.5136
 20
203.72900000000001
 30
0.0
 11
-30.587599999999998
 21
203.673
 31
0.0
  0
LINE
  5
142
  8
_________1
 62
     7
 10
-30.587599999999998
 20
203.673
 30
0.0
 11
-30.6066
 21
203.61600000000001
 31
0.0
  0
LINE
  5
143
  8
_________1
 62
     7
 10
-30.6066
 20
203.79400000000001
 30
0.0
 11
-30.6066
 21
203.61600000000001
 31
0.0
  0
LINE
  5
144
  8
_________1
 62
     7
 10
-30.6066
 20
203.61600000000001
 30
0.0
 11
-30.577999999999999
 21
203.55000000000001
 31
0.0
  0
LINE
  5
145
  8
_________1
 62
     7
 10
-30.577999999999999
 20
203.55000000000001
 30
0.0
 11
-30.5136
 21
203.505
 31
0.0
  0
LINE
  5
146
  8
_________1
 62
     7
 10
-30.5136
 20
203.505
 30
0.0
 11
-30.665199999999999
 21
203.35599999999999
 31
0.0
  0
LINE
  5
147
  8
_________1
 62
     7
 10
-29.853100000000001
 20
203.637
 30
0.0
 11
-30.109500000000001
 21
203.637
 31
0.0
  0
LINE
  5
148
  8
_________1
 62
     7
 10
-30.109500000000001
 20
203.637
 30
0.0
 11
-30.157699999999998
 21
203.703
 31
0.0
  0
LINE
  5
149
  8
_________1
 62
     7
 10
-30.157699999999998
 20
203.703
 30
0.0
 11
-30.250699999999998
 21
203.74700000000001
 31
0.0
  0
LINE
  5
14A
  8
_________1
 62
     7
 10
-30.250699999999998
 20
203.74700000000001
 30
0.0
 11
-30.3706
 21
203.75899999999999
 31
0.0
  0
LINE
  5
14B
  8
_________1
 62
     7
 10
-30.3706
 20
203.75899999999999
 30
0.0
 11
-30.4481
 21
203.75
 31
0.0
  0
LINE
  5
14C
  8
_________1
 62
     7
 10
-30.4481
 20
203.75
 30
0.0
 11
-30.5153
 21
203.815
 31
0.0
  0
LINE
  5
14D
  8
_________1
 62
     7
 10
-30.659300000000002
 20
203.77500000000001
 30
0.0
 11
-30.665199999999999
 21
203.35599999999999
 31
0.0
  0
LINE
  5
14E
  8
_________1
 62
     7
 10
-30.665199999999999
 20
203.35599999999999
 30
0.0
 11
-30.599699999999999
 21
203.333
 31
0.0
  0
LINE
  5
14F
  8
_________1
 62
     7
 10
-30.599699999999999
 20
203.333
 30
0.0
 11
-30.4481
 21
203.482
 31
0.0
  0
LINE
  5
150
  8
_________1
 62
     7
 10
-30.4481
 20
203.482
 30
0.0
 11
-30.328600000000002
 21
203.47300000000001
 31
0.0
  0
LINE
  5
151
  8
_________1
 62
     7
 10
-30.328600000000002
 20
203.47300000000001
 30
0.0
 11
-30.215599999999998
 21
203.49799999999999
 31
0.0
  0
LINE
  5
152
  8
_________1
 62
     7
 10
-30.215599999999998
 20
203.49799999999999
 30
0.0
 11
-30.134599999999999
 21
203.55099999999999
 31
0.0
  0
LINE
  5
153
  8
_________1
 62
     7
 10
-30.134599999999999
 20
203.55099999999999
 30
0.0
 11
-30.109500000000001
 21
203.595
 31
0.0
  0
LINE
  5
154
  8
_________1
 62
     7
 10
-30.109500000000001
 20
203.595
 30
0.0
 11
-29.8263
 21
203.595
 31
0.0
  0
ARC
  5
155
  8
_________1
 62
     7
 10
-30.579823000000001
 20
203.44471100000001
 30
0.0
 40
0.340698
 50
139.56417300000001
 51
159.196718
  0
ARC
  5
156
  8
_________1
 62
     7
 10
-30.802804999999999
 20
203.52446399999999
 30
0.0
 40
0.104031
 50
156.63993400000001
 51
185.71689499999999
  0
ARC
  5
157
  8
_________1
 62
     7
 10
-30.610173
 20
203.574209
 30
0.0
 40
0.302185
 50
191.473311
 51
225.31184400000001
  0
ARC
  5
158
  8
_________1
 62
     7
 10
-30.512812
 20
203.66746800000001
 30
0.0
 40
0.436971
 50
224.83533
 51
245.61573200000001
  0
ARC
  5
159
  8
_________1
 62
     7
 10
-30.396253000000002
 20
203.89999399999999
 30
0.0
 40
0.696951
 50
244.78032099999999
 51
260.87854599999997
  0
ARC
  5
15A
  8
_________1
 62
     7
 10
-30.351792
 20
204.117118
 30
0.0
 40
0.9184269999999999
 50
260.287194
 51
288.3350759999999
  0
ARC
  5
15B
  8
_________1
 62
     7
 10
-30.244582999999999
 20
203.75818100000001
 30
0.0
 40
0.5441010000000001
 50
289.508849
 51
306.31394
  0
ARC
  5
15C
  8
_________1
 62
     7
 10
-30.115157
 20
203.57568900000001
 30
0.0
 40
0.320426
 50
306.99061
 51
337.37732699999998
  0
ARC
  5
15D
  8
_________1
 62
     7
 10
-30.007372
 20
203.520948
 30
0.0
 40
0.200084
 50
339.97503599999999
 51
47.481088
  0
ARC
  5
15E
  8
_________1
 62
     7
 10
-30.155252000000001
 20
203.36899500000001
 30
0.0
 40
0.4120720000000001
 50
46.605012999999992
 51
67.144311000000002
  0
ARC
  5
15F
  8
_________1
 62
     7
 10
-30.322489999999998
 20
203.016032
 30
0.0
 40
0.8024600000000001
 50
65.929535000000001
 51
81.496685999999997
  0
ARC
  5
160
  8
_________1
 62
     7
 10
-30.368321999999999
 20
202.81340700000001
 30
0.0
 40
1.0097519999999991
 50
80.624694999999974
 51
106.069683
  0
ARC
  5
161
  8
_________1
 62
     7
 10
-30.489899000000001
 20
203.29752300000001
 30
0.0
 40
0.511188
 50
107.995656
 51
126.140604
  0
ARC
  5
162
  8
_________1
 62
     7
 10
-30.593896000000001
 20
203.45128
 30
0.0
 40
0.325752
 50
127.318552
 51
138.838223
  0
ARC
  5
163
  8
_________1
 62
     7
 10
-30.670538000000001
 20
203.42686699999999
 30
0.0
 40
0.4109130000000001
 50
137.14653200000001
 51
155.46545399999999
  0
ARC
  5
164
  8
_________1
 62
     7
 10
-30.825305
 20
203.50976600000001
 30
0.0
 40
0.235959
 50
158.1735929999999
 51
226.50457900000001
  0
ARC
  5
165
  8
_________1
 62
     7
 10
-30.623785000000002
 20
203.68379400000001
 30
0.0
 40
0.501606
 50
223.486985
 51
241.87424300000001
  0
ARC
  5
166
  8
_________1
 62
     7
 10
-30.420549000000001
 20
204.03103100000001
 30
0.0
 40
0.9037799999999998
 50
240.88863699999999
 51
255.60751200000001
  0
ARC
  5
167
  8
_________1
 62
     7
 10
-30.334893000000001
 20
204.310823
 30
0.0
 40
1.196156999999999
 50
254.96459700000011
 51
284.887609
  0
ARC
  5
168
  8
_________1
 62
     7
 10
-30.220469000000001
 20
203.80210199999999
 30
0.0
 40
0.675415
 50
286.59455300000002
 51
315.95564100000001
  0
ARC
  5
169
  8
_________1
 62
     7
 10
-30.022942
 20
203.58994100000001
 30
0.0
 40
0.386233
 50
318.20782000000003
 51
337.01250800000003
  0
ARC
  5
16A
  8
_________1
 62
     7
 10
-29.876010999999998
 20
203.51872700000001
 30
0.0
 40
0.223309
 50
339.11119400000001
 51
36.145002000000012
  0
ARC
  5
16B
  8
_________1
 62
     7
 10
-30.013930999999999
 20
203.42489399999999
 30
0.0
 40
0.3900679999999999
 50
35.325879999999998
 51
55.451673
  0
ARC
  5
16C
  8
_________1
 62
     7
 10
-30.217832999999999
 20
203.15046100000001
 30
0.0
 40
0.7318400000000001
 50
54.487691000000012
 51
70.355831000000023
  0
ARC
  5
16D
  8
_________1
 62
     7
 10
-30.383219
 20
202.72822400000001
 30
0.0
 40
1.1851830000000001
 50
69.687980999999994
 51
105.327243
  0
ARC
  5
16E
  8
_________1
 62
     7
 10
-30.503177999999998
 20
203.23635100000001
 30
0.0
 40
0.6636820000000001
 50
106.935136
 51
134.91520800000001
  0
LINE
  5
16F
  8
_________1
 62
     7
 10
-30.6738
 20
204.28
 30
0.0
 11
-30.6738
 21
203.97399999999999
 31
0.0
  0
LINE
  5
170
  8
_________1
 62
     7
 10
-30.6738
 20
203.97399999999999
 30
0.0
 11
-30.737500000000001
 21
203.953
 31
0.0
  0
LINE
  5
171
  8
_________1
 62
     7
 10
-30.737500000000001
 20
203.953
 30
0.0
 11
-30.995899999999999
 21
204.21199999999999
 31
0.0
  0
LINE
  5
172
  8
_________1
 62
     7
 10
-30.943200000000001
 20
204.15899999999999
 30
0.0
 11
-30.943200000000001
 21
203.834
 31
0.0
  0
LINE
  5
173
  8
_________1
 62
     7
 10
-30.943200000000001
 20
203.834
 30
0.0
 11
-30.980399999999999
 21
203.79900000000001
 31
0.0
  0
LINE
  5
174
  8
_________1
 62
     7
 10
-30.980399999999999
 20
203.79900000000001
 30
0.0
 11
-31.482700000000001
 21
203.96700000000001
 31
0.0
  0
LINE
  5
175
  8
_________1
 62
     7
 10
-31.5654
 20
203.59700000000001
 30
0.0
 11
-31.5654
 21
203.24100000000001
 31
0.0
  0
LINE
  5
176
  8
_________1
 62
     7
 10
-31.5654
 20
203.24100000000001
 30
0.0
 11
-31.529900000000001
 21
203.20599999999999
 31
0.0
  0
LINE
  5
177
  8
_________1
 62
     7
 10
-31.529900000000001
 20
203.20599999999999
 30
0.0
 11
-31.014199999999999
 21
203.37700000000001
 31
0.0
  0
LINE
  5
178
  8
_________1
 62
     7
 10
-31.076899999999998
 20
203.35599999999999
 30
0.0
 11
-31.076899999999998
 21
202.94499999999999
 31
0.0
  0
LINE
  5
179
  8
_________1
 62
     7
 10
-31.076899999999998
 20
202.94499999999999
 30
0.0
 11
-31.014199999999999
 21
202.92400000000001
 31
0.0
  0
LINE
  5
17A
  8
_________1
 62
     7
 10
-31.014199999999999
 20
202.92400000000001
 30
0.0
 11
-30.753
 21
203.18299999999999
 31
0.0
  0
LINE
  5
17B
  8
_________1
 62
     7
 10
-30.3231
 20
203.114
 30
0.0
 11
-30.3231
 21
202.82900000000001
 31
0.0
  0
LINE
  5
17C
  8
_________1
 62
     7
 10
-30.3231
 20
202.82900000000001
 30
0.0
 11
-30.395399999999999
 21
202.82900000000001
 31
0.0
  0
LINE
  5
17D
  8
_________1
 62
     7
 10
-30.395399999999999
 20
202.82900000000001
 30
0.0
 11
-30.395399999999999
 21
203.114
 31
0.0
  0
LINE
  5
17E
  8
_________1
 62
     7
 10
-29.964099999999998
 20
203.18299999999999
 30
0.0
 11
-29.7029
 21
202.92400000000001
 31
0.0
  0
LINE
  5
17F
  8
_________1
 62
     7
 10
-29.7029
 20
202.92400000000001
 30
0.0
 11
-29.640899999999998
 21
202.94300000000001
 31
0.0
  0
LINE
  5
180
  8
_________1
 62
     7
 10
-29.640899999999998
 20
202.94300000000001
 30
0.0
 11
-29.640899999999998
 21
203.35400000000001
 31
0.0
  0
LINE
  5
181
  8
_________1
 62
     7
 10
-29.701599999999999
 20
203.375
 30
0.0
 11
-29.187200000000001
 21
203.20400000000001
 31
0.0
  0
LINE
  5
182
  8
_________1
 62
     7
 10
-29.187200000000001
 20
203.20400000000001
 30
0.0
 11
-29.151700000000002
 21
203.239
 31
0.0
  0
LINE
  5
183
  8
_________1
 62
     7
 10
-29.151700000000002
 20
203.239
 30
0.0
 11
-29.151700000000002
 21
203.595
 31
0.0
  0
LINE
  5
184
  8
_________1
 62
     7
 10
-29.770499999999998
 20
204.15700000000001
 30
0.0
 11
-29.770499999999998
 21
203.833
 31
0.0
  0
LINE
  5
185
  8
_________1
 62
     7
 10
-29.770499999999998
 20
203.833
 30
0.0
 11
-29.734999999999999
 21
203.798
 31
0.0
  0
LINE
  5
186
  8
_________1
 62
     7
 10
-29.734999999999999
 20
203.798
 30
0.0
 11
-29.231000000000002
 21
203.965
 31
0.0
  0
LINE
  5
187
  8
_________1
 62
     7
 10
-30.0381
 20
204.28
 30
0.0
 11
-30.0381
 21
203.97200000000001
 31
0.0
  0
LINE
  5
188
  8
_________1
 62
     7
 10
-30.0381
 20
203.97200000000001
 30
0.0
 11
-29.976099999999999
 21
203.953
 31
0.0
  0
LINE
  5
189
  8
_________1
 62
     7
 10
-29.976099999999999
 20
203.953
 30
0.0
 11
-29.715299999999999
 21
204.21000000000001
 31
0.0
  0
LINE
  5
18A
  8
_________1
 62
     7
 10
-30.391999999999999
 20
204.30099999999999
 30
0.0
 11
-30.391999999999999
 21
204.01599999999999
 31
0.0
  0
LINE
  5
18B
  8
_________1
 62
     7
 10
-30.391999999999999
 20
204.01599999999999
 30
0.0
 11
-30.319600000000001
 21
204.01599999999999
 31
0.0
  0
LINE
  5
18C
  8
_________1
 62
     7
 10
-30.319600000000001
 20
204.01599999999999
 30
0.0
 11
-30.319600000000001
 21
204.30099999999999
 31
0.0
  0
LINE
  5
18D
  8
_________1
 62
     7
 10
-30.728200000000001
 20
204.71199999999999
 30
0.0
 11
-30.728200000000001
 21
204.494
 31
0.0
  0
LINE
  5
18E
  8
_________1
 62
     7
 10
-30.728200000000001
 20
204.494
 30
0.0
 11
-30.800599999999999
 21
204.48099999999999
 31
0.0
  0
LINE
  5
18F
  8
_________1
 62
     7
 10
-30.800599999999999
 20
204.48099999999999
 30
0.0
 11
-30.8994
 21
204.691
 31
0.0
  0
LINE
  5
190
  8
_________1
 62
     7
 10
-31.110600000000002
 20
204.65199999999999
 30
0.0
 11
-31.110600000000002
 21
204.40899999999999
 31
0.0
  0
LINE
  5
191
  8
_________1
 62
     7
 10
-31.110600000000002
 20
204.40899999999999
 30
0.0
 11
-31.176100000000002
 21
204.386
 31
0.0
  0
LINE
  5
192
  8
_________1
 62
     7
 10
-31.176100000000002
 20
204.386
 30
0.0
 11
-31.373100000000001
 21
204.583
 31
0.0
  0
LINE
  5
193
  8
_________1
 62
     7
 10
-31.4438
 20
204.56
 30
0.0
 11
-31.4438
 21
204.27000000000001
 31
0.0
  0
LINE
  5
194
  8
_________1
 62
     7
 10
-31.4438
 20
204.27000000000001
 30
0.0
 11
-31.496500000000001
 21
204.238
 31
0.0
  0
LINE
  5
195
  8
_________1
 62
     7
 10
-31.496500000000001
 20
204.238
 30
0.0
 11
-31.7941
 21
204.411
 31
0.0
  0
LINE
  5
196
  8
_________1
 62
     7
 10
-31.700399999999998
 20
204.35599999999999
 30
0.0
 11
-31.700399999999998
 21
204.08600000000001
 31
0.0
  0
LINE
  5
197
  8
_________1
 62
     7
 10
-31.700399999999998
 20
204.08600000000001
 30
0.0
 11
-31.7376
 21
204.048
 31
0.0
  0
LINE
  5
198
  8
_________1
 62
     7
 10
-31.7376
 20
204.048
 30
0.0
 11
-32.134500000000003
 21
204.18000000000001
 31
0.0
  0
LINE
  5
199
  8
_________1
 62
     7
 10
-31.866499999999998
 20
204.09200000000001
 30
0.0
 11
-31.866499999999998
 21
203.87
 31
0.0
  0
LINE
  5
19A
  8
_________1
 62
     7
 10
-31.866499999999998
 20
203.87
 30
0.0
 11
-31.8858
 21
203.82900000000001
 31
0.0
  0
LINE
  5
19B
  8
_________1
 62
     7
 10
-31.8858
 20
203.82900000000001
 30
0.0
 11
-32.3688
 21
203.90299999999999
 31
0.0
  0
LINE
  5
19C
  8
_________1
 62
     7
 10
-31.929500000000001
 20
203.83600000000001
 30
0.0
 11
-31.929500000000001
 21
203.595
 31
0.0
  0
LINE
  5
19D
  8
_________1
 62
     7
 10
-31.929500000000001
 20
203.595
 30
0.0
 11
-32.4756
 21
203.595
 31
0.0
  0
LINE
  5
19E
  8
_________1
 62
     7
 10
-32.213700000000003
 20
203.30799999999999
 30
0.0
 11
-32.213700000000003
 21
203.02600000000001
 31
0.0
  0
LINE
  5
19F
  8
_________1
 62
     7
 10
-32.213700000000003
 20
203.02600000000001
 30
0.0
 11
-32.176499999999997
 21
202.989
 31
0.0
  0
LINE
  5
1A0
  8
_________1
 62
     7
 10
-32.176499999999997
 20
202.989
 30
0.0
 11
-31.7745
 21
203.12299999999999
 31
0.0
  0
LINE
  5
1A1
  8
_________1
 62
     7
 10
-31.883700000000001
 20
203.08600000000001
 30
0.0
 11
-31.883700000000001
 21
202.77099999999999
 31
0.0
  0
LINE
  5
1A2
  8
_________1
 62
     7
 10
-31.883700000000001
 20
202.77099999999999
 30
0.0
 11
-31.831299999999999
 21
202.74100000000001
 31
0.0
  0
LINE
  5
1A3
  8
_________1
 62
     7
 10
-31.831299999999999
 20
202.74100000000001
 30
0.0
 11
-31.531600000000001
 21
202.91300000000001
 31
0.0
  0
LINE
  5
1A4
  8
_________1
 62
     7
 10
-31.450600000000001
 20
202.86600000000001
 30
0.0
 11
-31.450600000000001
 21
202.57400000000001
 31
0.0
  0
LINE
  5
1A5
  8
_________1
 62
     7
 10
-31.450600000000001
 20
202.57400000000001
 30
0.0
 11
-31.385200000000001
 21
202.55199999999999
 31
0.0
  0
LINE
  5
1A6
  8
_________1
 62
     7
 10
-31.385200000000001
 20
202.55199999999999
 30
0.0
 11
-31.187799999999999
 21
202.74799999999999
 31
0.0
  0
LINE
  5
1A7
  8
_________1
 62
     7
 10
-30.944199999999999
 20
202.69200000000001
 30
0.0
 11
-30.943200000000001
 21
202.446
 31
0.0
  0
LINE
  5
1A8
  8
_________1
 62
     7
 10
-30.943200000000001
 20
202.446
 30
0.0
 11
-30.870799999999999
 21
202.43600000000001
 31
0.0
  0
LINE
  5
1A9
  8
_________1
 62
     7
 10
-30.870799999999999
 20
202.43600000000001
 30
0.0
 11
-30.767499999999998
 21
202.65299999999999
 31
0.0
  0
LINE
  5
1AA
  8
_________1
 62
     7
 10
-30.319600000000001
 20
202.61199999999999
 30
0.0
 11
-30.319600000000001
 21
202.399
 31
0.0
  0
LINE
  5
1AB
  8
_________1
 62
     7
 10
-30.319600000000001
 20
202.399
 30
0.0
 11
-30.395399999999999
 21
202.399
 31
0.0
  0
LINE
  5
1AC
  8
_________1
 62
     7
 10
-30.395399999999999
 20
202.399
 30
0.0
 11
-30.395399999999999
 21
202.61199999999999
 31
0.0
  0
LINE
  5
1AD
  8
_________1
 62
     7
 10
-29.940000000000001
 20
202.63399999999999
 30
0.0
 11
-29.844200000000001
 21
202.43600000000001
 31
0.0
  0
LINE
  5
1AE
  8
_________1
 62
     7
 10
-29.844200000000001
 20
202.43600000000001
 30
0.0
 11
-29.771799999999999
 21
202.446
 31
0.0
  0
LINE
  5
1AF
  8
_________1
 62
     7
 10
-29.771799999999999
 20
202.446
 30
0.0
 11
-29.769400000000001
 21
202.66800000000001
 31
0.0
  0
LINE
  5
1B0
  8
_________1
 62
     7
 10
-29.5197
 20
202.74199999999999
 30
0.0
 11
-29.329499999999999
 21
202.55199999999999
 31
0.0
  0
LINE
  5
1B1
  8
_________1
 62
     7
 10
-29.329499999999999
 20
202.55199999999999
 30
0.0
 11
-29.264700000000001
 21
202.57400000000001
 31
0.0
  0
LINE
  5
1B2
  8
_________1
 62
     7
 10
-29.264700000000001
 20
202.57400000000001
 30
0.0
 11
-29.264700000000001
 21
202.86600000000001
 31
0.0
  0
LINE
  5
1B3
  8
_________1
 62
     7
 10
-29.180299999999999
 20
202.91200000000001
 30
0.0
 11
-28.884
 21
202.74100000000001
 31
0.0
  0
LINE
  5
1B4
  8
_________1
 62
     7
 10
-28.884
 20
202.74100000000001
 30
0.0
 11
-28.831299999999999
 21
202.77099999999999
 31
0.0
  0
LINE
  5
1B5
  8
_________1
 62
     7
 10
-28.831299999999999
 20
202.77099999999999
 30
0.0
 11
-28.831299999999999
 21
203.08600000000001
 31
0.0
  0
LINE
  5
1B6
  8
_________1
 62
     7
 10
-28.5016
 20
203.30799999999999
 30
0.0
 11
-28.5016
 21
203.02600000000001
 31
0.0
  0
LINE
  5
1B7
  8
_________1
 62
     7
 10
-28.5016
 20
203.02600000000001
 30
0.0
 11
-28.538499999999999
 21
202.989
 31
0.0
  0
LINE
  5
1B8
  8
_________1
 62
     7
 10
-28.538499999999999
 20
202.989
 30
0.0
 11
-28.940200000000001
 21
203.12299999999999
 31
0.0
  0
LINE
  5
1B9
  8
_________1
 62
     7
 10
-28.794499999999999
 20
203.35499999999999
 30
0.0
 11
-28.318000000000001
 21
203.28
 31
0.0
  0
LINE
  5
1BA
  8
_________1
 62
     7
 10
-28.318000000000001
 20
203.28
 30
0.0
 11
-28.299399999999999
 21
203.322
 31
0.0
  0
LINE
  5
1BB
  8
_________1
 62
     7
 10
-28.299399999999999
 20
203.322
 30
0.0
 11
-28.299399999999999
 21
203.595
 31
0.0
  0
LINE
  5
1BC
  8
_________1
 62
     7
 10
-28.7852
 20
203.83600000000001
 30
0.0
 11
-28.7852
 21
203.637
 31
0.0
  0
LINE
  5
1BD
  8
_________1
 62
     7
 10
-28.7852
 20
203.637
 30
0.0
 11
-28.7852
 21
203.595
 31
0.0
  0
LINE
  5
1BE
  8
_________1
 62
     7
 10
-28.7852
 20
203.595
 30
0.0
 11
-28.2408
 21
203.595
 31
0.0
  0
LINE
  5
1BF
  8
_________1
 62
     7
 10
-28.848600000000001
 20
204.09200000000001
 30
0.0
 11
-28.848600000000001
 21
203.87
 31
0.0
  0
LINE
  5
1C0
  8
_________1
 62
     7
 10
-28.848600000000001
 20
203.87
 30
0.0
 11
-28.828900000000001
 21
203.82900000000001
 31
0.0
  0
LINE
  5
1C1
  8
_________1
 62
     7
 10
-28.828900000000001
 20
203.82900000000001
 30
0.0
 11
-28.346599999999999
 21
203.90299999999999
 31
0.0
  0
LINE
  5
1C2
  8
_________1
 62
     7
 10
-29.0139
 20
204.35599999999999
 30
0.0
 11
-29.0139
 21
204.08600000000001
 31
0.0
  0
LINE
  5
1C3
  8
_________1
 62
     7
 10
-29.0139
 20
204.08600000000001
 30
0.0
 11
-28.9771
 21
204.048
 31
0.0
  0
LINE
  5
1C4
  8
_________1
 62
     7
 10
-28.9771
 20
204.048
 30
0.0
 11
-28.5809
 21
204.18000000000001
 31
0.0
  0
LINE
  5
1C5
  8
_________1
 62
     7
 10
-29.271599999999999
 20
204.56
 30
0.0
 11
-29.271599999999999
 21
204.27000000000001
 31
0.0
  0
LINE
  5
1C6
  8
_________1
 62
     7
 10
-29.271599999999999
 20
204.27000000000001
 30
0.0
 11
-29.2182
 21
204.238
 31
0.0
  0
LINE
  5
1C7
  8
_________1
 62
     7
 10
-29.2182
 20
204.238
 30
0.0
 11
-28.9209
 21
204.411
 31
0.0
  0
LINE
  5
1C8
  8
_________1
 62
     7
 10
-29.604099999999999
 20
204.65199999999999
 30
0.0
 11
-29.604099999999999
 21
204.40899999999999
 31
0.0
  0
LINE
  5
1C9
  8
_________1
 62
     7
 10
-29.604099999999999
 20
204.40899999999999
 30
0.0
 11
-29.5396
 21
204.386
 31
0.0
  0
LINE
  5
1CA
  8
_________1
 62
     7
 10
-29.5396
 20
204.386
 30
0.0
 11
-29.342199999999998
 21
204.583
 31
0.0
  0
LINE
  5
1CB
  8
_________1
 62
     7
 10
-29.986499999999999
 20
204.71199999999999
 30
0.0
 11
-29.986499999999999
 21
204.494
 31
0.0
  0
LINE
  5
1CC
  8
_________1
 62
     7
 10
-29.986499999999999
 20
204.494
 30
0.0
 11
-29.914100000000001
 21
204.48099999999999
 31
0.0
  0
LINE
  5
1CD
  8
_________1
 62
     7
 10
-29.914100000000001
 20
204.48099999999999
 30
0.0
 11
-29.817699999999999
 21
204.691
 31
0.0
  0
LINE
  5
1CE
  8
_________1
 62
     7
 10
-30.319600000000001
 20
204.73099999999999
 30
0.0
 11
-30.319600000000001
 21
204.518
 31
0.0
  0
LINE
  5
1CF
  8
_________1
 62
     7
 10
-30.319600000000001
 20
204.518
 30
0.0
 11
-30.395399999999999
 21
204.518
 31
0.0
  0
LINE
  5
1D0
  8
_________1
 62
     7
 10
-30.395399999999999
 20
204.518
 30
0.0
 11
-30.395399999999999
 21
204.73099999999999
 31
0.0
  0
ARC
  5
1D1
  8
_________1
 62
     7
 10
-30.986979000000002
 20
203.273653
 30
0.0
 40
1.008729999999999
 50
138.08615800000001
 51
150.37487899999999
  0
ARC
  5
1D2
  8
_________1
 62
     7
 10
-31.340942999999999
 20
203.48106300000001
 30
0.0
 40
0.598533
 50
150.884635
 51
179.370543
  0
ARC
  5
1D3
  8
_________1
 62
     7
 10
-31.433339
 20
203.50081800000001
 30
0.0
 40
0.5062730000000001
 50
181.49177399999991
 51
212.38393400000001
  0
ARC
  5
1D4
  8
_________1
 62
     7
 10
-31.183128
 20
203.64657
 30
0.0
 40
0.795708
 50
211.59713300000001
 51
233.572701
  0
ARC
  5
1D5
  8
_________1
 62
     7
 10
-30.821536999999999
 20
204.07657
 30
0.0
 40
1.3568729999999991
 50
232.069074
 51
243.11697100000001
  0
ARC
  5
1D6
  8
_________1
 62
     7
 10
-30.494092999999999
 20
204.69418200000001
 30
0.0
 40
2.0558399999999999
 50
242.76046700000001
 51
256.47325799999999
  0
ARC
  5
1D7
  8
_________1
 62
     7
 10
-30.316741
 20
205.30873399999999
 30
0.0
 40
2.6949799999999988
 50
255.86332100000001
 51
283.43355400000002
  0
ARC
  5
1D8
  8
_________1
 62
     7
 10
-30.136468000000001
 20
204.388004
 30
0.0
 40
1.7579839999999991
 50
284.690428
 51
302.72867500000001
  0
ARC
  5
1D9
  8
_________1
 62
     7
 10
-29.902274999999999
 20
203.98050699999999
 30
0.0
 40
1.2887729999999991
 50
303.76480699999991
 51
317.21840800000001
  0
ARC
  5
1DA
  8
_________1
 62
     7
 10
-29.636130000000001
 20
203.73178899999999
 30
0.0
 40
0.924507
 50
317.32865600000002
 51
330.23738700000013
  0
ARC
  5
1DB
  8
_________1
 62
     7
 10
-29.311648999999999
 20
203.54013
 30
0.0
 40
0.547713
 50
330.79206899999991
 51
0.757196
  0
ARC
  5
1DC
  8
_________1
 62
     7
 10
-29.253779000000002
 20
203.52241000000001
 30
0.0
 40
0.4904310000000001
 50
2.917062
 51
34.244517999999999
  0
ARC
  5
1DD
  8
_________1
 62
     7
 10
-29.535539
 20
203.34967900000001
 30
0.0
 40
0.8206979999999999
 50
33.143711000000003
 51
54.486905
  0
ARC
  5
1DE
  8
_________1
 62
     7
 10
-29.924713000000001
 20
202.87052199999999
 30
0.0
 40
1.4373039999999999
 50
52.954213000000003
 51
63.462963999999992
  0
ARC
  5
1DF
  8
_________1
 62
     7
 10
-30.27575800000001
 20
202.191385
 30
0.0
 40
2.201756
 50
63.186126999999999
 51
76.987495999999993
  0
ARC
  5
1E0
  8
_________1
 62
     7
 10
-30.436525
 20
201.635548
 30
0.0
 40
2.7796970000000001
 50
76.338518000000008
 51
100.05379499999999
  0
ARC
  5
1E1
  8
_________1
 62
     7
 10
-30.574252000000001
 20
202.59607399999999
 30
0.0
 40
1.8101599999999991
 50
101.06894
 51
118.347184
  0
ARC
  5
1E2
  8
_________1
 62
     7
 10
-30.829792999999999
 20
203.11786599999999
 30
0.0
 40
1.229816
 50
119.412025
 51
137.57707500000001
  0
ARC
  5
1E3
  8
_________1
 62
     7
 10
-30.880503999999998
 20
203.30014
 30
0.0
 40
0.902954
 50
139.128882
 51
151.19949700000001
  0
ARC
  5
1E4
  8
_________1
 62
     7
 10
-31.200662999999999
 20
203.48106899999999
 30
0.0
 40
0.5352510000000001
 50
151.66069999999999
 51
179.64484100000001
  0
ARC
  5
1E5
  8
_________1
 62
     7
 10
-31.291345
 20
203.49803800000001
 30
0.0
 40
0.444768
 50
181.758813
 51
212.43569500000001
  0
ARC
  5
1E6
  8
_________1
 62
     7
 10
-31.082301999999999
 20
203.62113199999999
 30
0.0
 40
0.6872700000000001
 50
211.74953300000001
 51
233.8113910000001
  0
ARC
  5
1E7
  8
_________1
 62
     7
 10
-30.751449999999998
 20
204.02485799999999
 30
0.0
 40
1.208798
 50
232.45354
 51
244.44795199999999
  0
ARC
  5
1E8
  8
_________1
 62
     7
 10
-30.443238000000001
 20
204.644531
 30
0.0
 40
1.9008349999999989
 50
244.122941
 51
259.80598700000002
  0
ARC
  5
1E9
  8
_________1
 62
     7
 10
-30.316852000000001
 20
205.150814
 30
0.0
 40
2.4217430000000002
 50
258.98290400000002
 51
280.44250699999998
  0
ARC
  5
1EA
  8
_________1
 62
     7
 10
-30.188063
 20
204.35481200000001
 30
0.0
 40
1.6156790000000001
 50
281.06730599999997
 51
301.08273200000002
  0
ARC
  5
1EB
  8
_________1
 62
     7
 10
-29.940550000000002
 20
203.89039099999999
 30
0.0
 40
1.090508
 50
302.54315000000003
 51
315.91466200000002
  0
ARC
  5
1EC
  8
_________1
 62
     7
 10
-29.718840000000011
 20
203.67322899999999
 30
0.0
 40
0.780169
 50
316.04233999999991
 51
335.98614199999997
  0
ARC
  5
1ED
  8
_________1
 62
     7
 10
-29.427389999999999
 20
203.52002100000001
 30
0.0
 40
0.452099
 50
338.69158900000002
 51
38.672272999999997
  0
ARC
  5
1EE
  8
_________1
 62
     7
 10
-29.681442000000001
 20
203.34839700000001
 30
0.0
 40
0.758092
 50
36.800969000000009
 51
50.104047999999992
  0
ARC
  5
1EF
  8
_________1
 62
     7
 10
-29.945005999999999
 20
203.04410100000001
 30
0.0
 40
1.160622
 50
49.756718999999997
 51
61.948359000000011
  0
ARC
  5
1F0
  8
_________1
 62
     7
 10
-30.253615000000011
 20
202.48598699999999
 30
0.0
 40
1.798325999999999
 50
61.633195000000001
 51
77.899709000000016
  0
ARC
  5
1F1
  8
_________1
 62
     7
 10
-30.384556
 20
202.025443
 30
0.0
 40
2.2763040000000001
 50
77.107044999999999
 51
103.977609
  0
ARC
  5
1F2
  8
_________1
 62
     7
 10
-30.532928999999999
 20
202.74734900000001
 30
0.0
 40
1.5402340000000001
 50
105.10821
 51
131.746827
  0
LINE
  5
1F3
  8
_________1
 62
     7
 10
-31.558499999999999
 20
203.89699999999999
 30
0.0
 11
-31.563300000000002
 21
203.89099999999999
 31
0.0
  0
ARC
  5
1F4
  8
_________1
 62
     7
 10
-31.597933000000001
 20
204.85496599999999
 30
0.0
 40
1.8236429999999999
 50
132.863811
 51
169.661991
  0
ARC
  5
1F5
  8
_________1
 62
     7
 10
-31.135414999999998
 20
204.40710999999999
 30
0.0
 40
2.4667799999999991
 50
117.575372
 51
133.66179700000001
  0
ARC
  5
1F6
  8
_________1
 62
     7
 10
-30.687898000000001
 20
203.62202600000001
 30
0.0
 40
3.3700069999999989
 50
105.625146
 51
118.140733
  0
ARC
  5
1F7
  8
_________1
 62
     7
 10
-30.365497000000001
 20
202.53016700000001
 30
0.0
 40
4.5083820000000001
 50
69.788166000000004
 51
105.83359900000001
  0
ARC
  5
1F8
  8
_________1
 62
     7
 10
-29.898492000000001
 20
203.94666699999999
 30
0.0
 40
3.0181939999999989
 50
50.746701000000002
 51
68.817273
  0
ARC
  5
1F9
  8
_________1
 62
     7
 10
-29.302230999999999
 20
204.738789
 30
0.0
 40
2.027911
 50
12.630782999999999
 51
49.630710999999998
  0
ARC
  5
1FA
  8
_________1
 62
     7
 10
-28.359140000000011
 20
204.76648800000001
 30
0.0
 40
1.1153269999999991
 50
333.34712500000001
 51
36.589430999999998
  0
ARC
  5
1FB
  8
_________1
 62
     7
 10
-29.156592
 20
204.22458
 30
0.0
 40
2.0790310000000001
 50
35.480699999999999
 51
57.146644000000002
  0
ARC
  5
1FC
  8
_________1
 62
     7
 10
-29.633255999999999
 20
203.55260799999999
 30
0.0
 40
2.9023369999999988
 50
56.438135000000003
 51
71.507120999999984
  0
ARC
  5
1FD
  8
_________1
 62
     7
 10
-30.047715
 20
202.44732400000001
 30
0.0
 40
4.082228999999999
 50
70.910933999999997
 51
82.271274000000005
  0
ARC
  5
1FE
  8
_________1
 62
     7
 10
-30.262094999999999
 20
201.066846
 30
0.0
 40
5.479061999999999
 50
81.991206000000005
 51
110.555429
  0
ARC
  5
1FF
  8
_________1
 62
     7
 10
-30.93937
 20
203.01823400000001
 30
0.0
 40
3.4144949999999992
 50
111.411312
 51
123.23817099999999
  0
ARC
  5
200
  8
_________1
 62
     7
 10
-31.60971
 20
204.09401399999999
 30
0.0
 40
2.1474809999999991
 50
124.01155300000001
 51
136.474887
  0
ARC
  5
201
  8
_________1
 62
     7
 10
-32.198754999999998
 20
204.677829
 30
0.0
 40
1.3184419999999999
 50
137.24190100000001
 51
163.20527100000001
  0
ARC
  5
202
  8
_________1
 62
     7
 10
-32.461517000000001
 20
204.801084
 30
0.0
 40
1.032130999999999
 50
165.541541
 51
201.98075600000001
  0
ARC
  5
203
  8
_________1
 62
     7
 10
-32.062528
 20
204.921513
 30
0.0
 40
1.4476830000000001
 50
200.489914
 51
206.91600700000001
  0
LINE
  5
204
  8
_________1
 62
     7
 10
-32.758099999999999
 20
204.01400000000001
 30
0.0
 11
-32.616799999999998
 21
203.71199999999999
 31
0.0
  0
LINE
  5
205
  8
_________1
 62
     7
 10
-32.616799999999998
 20
203.71199999999999
 30
0.0
 11
-32.604799999999997
 21
203.69200000000001
 31
0.0
  0
ARC
  5
206
  8
_________1
 62
     7
 10
-28.9194
 20
204.165166
 30
0.0
 40
0.937101
 50
329.66429900000003
 51
354.09542499999998
  0
ARC
  5
207
  8
_________1
 62
     7
 10
-24.777161
 20
203.57490100000001
 30
0.0
 40
3.333445999999999
 50
177.28124700000001
 51
179.985071
  0
ARC
  5
208
  8
_________1
 62
     7
 10
-30.483463
 20
203.883466
 30
0.0
 40
2.381365999999999
 50
356.37777299999999
 51
3.5622809999999991
  0
ARC
  5
209
  8
_________1
 62
     7
 10
-29.038197
 20
203.97751
 30
0.0
 40
0.9330569999999999
 50
3.312803999999999
 51
19.406165000000001
  0
ARC
  5
20A
  8
_________1
 62
     7
 10
-31.717030999999999
 20
204.006023
 30
0.0
 40
0.8877270000000002
 50
161.51178899999999
 51
173.75909200000001
  0
ARC
  5
20B
  8
_________1
 62
     7
 10
-31.102495000000001
 20
203.92385100000001
 30
0.0
 40
1.5076279999999991
 50
173.1936
 51
178.532479
  0
ARC
  5
20C
  8
_________1
 62
     7
 10
-29.053861999999999
 20
203.88126500000001
 30
0.0
 40
3.5566930000000001
 50
178.691847
 51
182.05807200000001
  0
ARC
  5
20D
  8
_________1
 62
     7
 10
317.204297
 20
210.549858
 30
0.0
 40
349.87857300000002
 50
181.11304899999999
 51
181.142166
  0
ARC
  5
20E
  8
_________1
 62
     7
 10
-31.294407
 20
203.21974299999999
 30
0.0
 40
1.2759709999999991
 50
136.54355899999999
 51
152.776703
  0
ARC
  5
20F
  8
_________1
 62
     7
 10
-31.788951999999998
 20
203.50248300000001
 30
0.0
 40
0.707313
 50
154.81737799999999
 51
215.24899199999999
  0
ARC
  5
210
  8
_________1
 62
     7
 10
-31.467884000000002
 20
203.72934900000001
 30
0.0
 40
1.1004449999999999
 50
215.24758700000001
 51
229.42797200000001
  0
ARC
  5
211
  8
_________1
 62
     7
 10
-31.029631999999999
 20
204.22043099999999
 30
0.0
 40
1.7585580000000001
 50
228.988451
 51
244.196798
  0
ARC
  5
212
  8
_________1
 62
     7
 10
-30.490244000000001
 20
205.23106899999999
 30
0.0
 40
2.903575
 50
243.29504299999999
 51
257.43228800000003
  0
ARC
  5
213
  8
_________1
 62
     7
 10
-30.276195000000001
 20
205.98516900000001
 30
0.0
 40
3.686455
 50
256.73547100000002
 51
280.95973199999997
  0
ARC
  5
214
  8
_________1
 62
     7
 10
-30.086435000000002
 20
204.77753799999999
 30
0.0
 40
2.465152999999999
 50
281.96603599999997
 51
299.34927199999998
  0
ARC
  5
215
  8
_________1
 62
     7
 10
-29.761384
 20
204.13691700000001
 30
0.0
 40
1.747706999999999
 50
300.35442899999998
 51
316.6120160000001
  0
ARC
  5
216
  8
_________1
 62
     7
 10
-29.412053
 20
203.79869400000001
 30
0.0
 40
1.2615190000000001
 50
316.87656800000002
 51
333.17133999999999
  0
ARC
  5
217
  8
_________1
 62
     7
 10
-28.929321000000002
 20
203.52611099999999
 30
0.0
 40
0.708179
 50
335.22467599999999
 51
35.416823000000001
  0
ARC
  5
218
  8
_________1
 62
     7
 10
-29.252776999999998
 20
203.29866100000001
 30
0.0
 40
1.103596
 50
35.308436
 51
49.418925999999999
  0
ARC
  5
219
  8
_________1
 62
     7
 10
-29.690973
 20
202.807062
 30
0.0
 40
1.762063999999999
 50
48.995977000000011
 51
64.128248999999997
  0
ARC
  5
21A
  8
_________1
 62
     7
 10
-30.224623000000001
 20
201.80835300000001
 30
0.0
 40
2.8938779999999991
 50
63.249754000000003
 51
77.382381000000009
  0
ARC
  5
21B
  8
_________1
 62
     7
 10
-30.43862
 20
201.05613399999999
 30
0.0
 40
3.6749459999999989
 50
76.688389999999998
 51
100.91674
  0
ARC
  5
21C
  8
_________1
 62
     7
 10
-30.624715999999999
 20
202.24216100000001
 30
0.0
 40
2.475493999999999
 50
101.886217
 51
119.186874
  0
ARC
  5
21D
  8
_________1
 62
     7
 10
-30.942672999999999
 20
202.87379999999999
 30
0.0
 40
1.769258999999999
 50
120.172602
 51
136.24575200000001
  0
ARC
  5
21E
  8
_________1
 62
     7
 10
-29.101444999999998
 20
203.523313
 30
0.0
 40
0.9922260000000001
 50
3.0304630000000001
 51
43.533914000000003
  0
ARC
  5
21F
  8
_________1
 62
     7
 10
-29.406756999999999
 20
203.25801100000001
 30
0.0
 40
1.396417999999999
 50
42.797015999999999
 51
59.707884999999997
  0
ARC
  5
220
  8
_________1
 62
     7
 10
-29.839338999999999
 20
202.57509099999999
 30
0.0
 40
2.2044860000000002
 50
58.95287600000001
 51
73.189993000000001
  0
ARC
  5
221
  8
_________1
 62
     7
 10
-30.2331
 20
201.41924499999999
 30
0.0
 40
3.4250809999999992
 50
72.476253
 51
85.945795000000004
  0
ARC
  5
222
  8
_________1
 62
     7
 10
-30.336236
 20
200.62555399999999
 30
0.0
 40
4.2243370000000002
 50
85.311510999999996
 51
104.852026
  0
ARC
  5
223
  8
_________1
 62
     7
 10
-30.677045
 20
202.06088399999999
 30
0.0
 40
2.7498719999999999
 50
105.653936
 51
117.239406
  0
ARC
  5
224
  8
_________1
 62
     7
 10
-31.143346999999999
 20
203.003232
 30
0.0
 40
1.6986799999999991
 50
117.803792
 51
133.11932100000001
  0
ARC
  5
225
  8
_________1
 62
     7
 10
-31.574124999999999
 20
203.48702
 30
0.0
 40
1.0512269999999999
 50
134.004481
 51
158.38451499999999
  0
ARC
  5
226
  8
_________1
 62
     7
 10
-31.731403
 20
203.572225
 30
0.0
 40
0.8738819999999998
 50
159.779583
 51
181.98165499999999
  0
ARC
  5
227
  8
_________1
 62
     7
 10
-31.663342
 20
203.57317800000001
 30
0.0
 40
0.9419360000000001
 50
181.89643899999999
 51
224.257668
  0
ARC
  5
228
  8
_________1
 62
     7
 10
-31.299398
 20
203.89057
 30
0.0
 40
1.4243490000000001
 50
223.18470400000001
 51
240.43640499999989
  0
ARC
  5
229
  8
_________1
 62
     7
 10
-30.871755
 20
204.578047
 30
0.0
 40
2.2335579999999999
 50
239.59565000000001
 51
251.79428300000001
  0
ARC
  5
22A
  8
_________1
 62
     7
 10
-30.480917999999999
 20
205.670445
 30
0.0
 40
3.3935129999999991
 50
251.28820099999999
 51
266.07713799999999
  0
ARC
  5
22B
  8
_________1
 62
     7
 10
-30.374611999999999
 20
206.41880900000001
 30
0.0
 40
4.1477579999999996
 50
265.31931100000003
 51
283.972239
  0
ARC
  5
22C
  8
_________1
 62
     7
 10
-30.062754999999999
 20
205.011886
 30
0.0
 40
2.7074180000000001
 50
284.75683500000002
 51
298.557232
  0
ARC
  5
22D
  8
_________1
 62
     7
 10
-29.576281000000002
 20
204.060574
 30
0.0
 40
1.639521
 50
299.51733200000001
 51
314.83588400000002
  0
ARC
  5
22E
  8
_________1
 62
     7
 10
-29.262073000000001
 20
203.71823699999999
 30
0.0
 40
1.1753649999999991
 50
315.74066199999999
 51
324.12028500000002
  0
ARC
  5
22F
  8
_________1
 62
     7
 10
-29.47485
 20
203.868449
 30
0.0
 40
1.4358079999999991
 50
324.23987099999999
 51
333.46714300000002
  0
ARC
  5
230
  8
_________1
 62
     7
 10
-28.891289
 20
203.57065
 30
0.0
 40
0.7806990000000001
 50
333.889231
 51
0.3756590000000001
  0
ARC
  5
231
  8
_________1
 62
     7
 10
-29.767759999999999
 20
202.91276400000001
 30
0.0
 40
0.89281
 50
269.95912799999991
 51
275.601675
  0
ARC
  5
232
  8
_________1
 62
     7
 10
-29.836338000000001
 20
203.694626
 30
0.0
 40
1.6776519999999999
 50
275.32610699999998
 51
280.17507899999998
  0
ARC
  5
233
  8
_________1
 62
     7
 10
-30.048759
 20
204.904359
 30
0.0
 40
2.9058889999999988
 50
280.08386000000002
 51
283.933063
  0
ARC
  5
234
  8
_________1
 62
     7
 10
-30.491786999999999
 20
206.691429
 30
0.0
 40
4.7470540000000003
 50
283.92929500000002
 51
292.440292
  0
ARC
  5
235
  8
_________1
 62
     7
 10
-29.810034999999999
 20
204.98357799999999
 30
0.0
 40
2.908367999999999
 50
292.869621
 51
303.298429
  0
ARC
  5
236
  8
_________1
 62
     7
 10
-29.244987999999999
 20
204.094539
 30
0.0
 40
1.8551459999999991
 50
303.78651500000001
 51
322.94086600000003
  0
ARC
  5
237
  8
_________1
 62
     7
 10
-28.846924999999999
 20
203.75216
 30
0.0
 40
1.331572999999999
 50
324.37538000000001
 51
329.94090299999999
  0
ARC
  5
238
  8
_________1
 62
     7
 10
-28.842276999999999
 20
203.752295
 30
0.0
 40
1.32762
 50
329.83538800000002
 51
345.61287800000002
  0
ARC
  5
239
  8
_________1
 62
     7
 10
-28.427783999999999
 20
203.624697
 30
0.0
 40
0.894658
 50
346.93264199999999
 51
31.799226999999998
  0
ARC
  5
23A
  8
_________1
 62
     7
 10
-28.788996999999998
 20
203.40587600000001
 30
0.0
 40
1.3169669999999991
 50
31.609400000000001
 51
49.650693999999987
  0
ARC
  5
23B
  8
_________1
 62
     7
 10
-29.341484999999999
 20
202.814224
 30
0.0
 40
2.1259179999999991
 50
48.626626000000002
 51
57.654212999999991
  0
ARC
  5
23C
  8
_________1
 62
     7
 10
-29.947230000000001
 20
201.88339500000001
 30
0.0
 40
3.236434
 50
57.411066000000012
 51
68.827665999999994
  0
ARC
  5
23D
  8
_________1
 62
     7
 10
-30.443877000000001
 20
200.74941999999999
 30
0.0
 40
4.4735599999999991
 50
68.141666000000015
 51
81.016283999999999
  0
LINE
  5
23E
  8
_________1
 62
     7
 10
-29.7453
 20
205.16800000000001
 30
0.0
 11
-30.9466
 21
205.172
 31
0.0
  0
ARC
  5
23F
  8
_________1
 62
     7
 10
-30.947116999999999
 20
204.29905299999999
 30
0.0
 40
0.872494
 50
89.967795999999993
 51
95.550747999999984
  0
ARC
  5
240
  8
_________1
 62
     7
 10
-30.874711999999999
 20
203.48106999999999
 30
0.0
 40
1.6936599999999991
 50
95.312053000000006
 51
100.25609799999999
  0
ARC
  5
241
  8
_________1
 62
     7
 10
-30.65295900000001
 20
202.23172199999999
 30
0.0
 40
2.9625309999999998
 50
100.17420799999999
 51
103.850483
  0
ARC
  5
242
  8
_________1
 62
     7
 10
-30.231652
 20
200.52833699999999
 30
0.0
 40
4.7172439999999991
 50
103.86608
 51
112.0541879999999
  0
ARC
  5
243
  8
_________1
 62
     7
 10
-30.976789
 20
202.41953100000001
 30
0.0
 40
2.6847150000000002
 50
112.470298
 51
127.840341
  0
ARC
  5
244
  8
_________1
 62
     7
 10
-31.508573999999999
 20
203.141447
 30
0.0
 40
1.7885180000000001
 50
128.574172
 51
146.63198
  0
ARC
  5
245
  8
_________1
 62
     7
 10
-32.054890999999998
 20
203.52886000000001
 30
0.0
 40
1.1194129999999991
 50
147.81275400000001
 51
173.52624299999999
  0
ARC
  5
246
  8
_________1
 62
     7
 10
-32.245457999999999
 20
203.57834399999999
 30
0.0
 40
0.9248969999999999
 50
175.241422
 51
209.7267490000001
  0
ARC
  5
247
  8
_________1
 62
     7
 10
-31.895810999999998
 20
203.75378599999999
 30
0.0
 40
1.315693
 50
208.811184
 51
225.60047599999999
  0
ARC
  5
248
  8
_________1
 62
     7
 10
-31.371939999999999
 20
204.249122
 30
0.0
 40
2.0363189999999989
 50
224.82023599999999
 51
235.19856999999999
  0
ARC
  5
249
  8
_________1
 62
     7
 10
-31.034613
 20
204.69447099999999
 30
0.0
 40
2.5946359999999991
 50
234.694751
 51
250.58951400000001
  0
ARC
  5
24A
  8
_________1
 62
     7
 10
-30.528534000000001
 20
205.977383
 30
0.0
 40
3.9731419999999988
 50
249.854625
 51
260.24900100000002
  0
ARC
  5
24B
  8
_________1
 62
     7
 10
-30.095018
 20
208.09222800000001
 30
0.0
 40
6.1312480000000003
 50
259.60355299999998
 51
261.79488800000001
  0
LINE
  5
24C
  8
_________1
 62
     7
 10
-30.970099999999999
 20
202.024
 30
0.0
 11
-29.7684
 21
202.02000000000001
 31
0.0
  0
ARC
  5
24D
  8
_________1
 62
     7
 10
-30.357856999999999
 20
200.97536600000001
 30
0.0
 40
5.1151260000000001
 50
76.464556000000002
 51
103.53542400000001
  0
LINE
  5
24E
  8
_________1
 62
     7
 10
-31.555
 20
205.94800000000001
 30
0.0
 11
-31.555
 21
205.25999999999999
 31
0.0
  0
ARC
  5
24F
  8
_________1
 62
     7
 10
-30.357856999999999
 20
211.15118699999999
 30
0.0
 40
6.011514
 50
258.51289800000001
 51
281.487122
  0
LINE
  5
250
  8
_________1
 62
     7
 10
-29.160699999999999
 20
205.25999999999999
 30
0.0
 11
-29.160699999999999
 21
205.94800000000001
 31
0.0
  0
LINE
  5
251
  8
_________1
 62
     7
 10
-29.160699999999999
 20
205.25999999999999
 30
0.0
 11
-29.160699999999999
 21
205.94800000000001
 31
0.0
  0
LINE
  5
252
  8
_________1
 62
     7
 10
-29.160699999999999
 20
205.94800000000001
 30
0.0
 11
-31.555
 21
205.94800000000001
 31
0.0
  0
LINE
  5
253
  8
_________1
 62
     7
 10
-31.555
 20
205.94800000000001
 30
0.0
 11
-31.555
 21
205.25999999999999
 31
0.0
  0
ARC
  5
254
  8
_________1
 62
     7
 10
-30.691224999999999
 20
201.690404
 30
0.0
 40
3.6727110000000001
 50
103.603211
 51
116.464448
  0
ARC
  5
255
  8
_________1
 62
     7
 10
-31.158179000000001
 20
202.68547100000001
 30
0.0
 40
2.5739469999999991
 50
117.03035800000001
 51
133.502081
  0
ARC
  5
256
  8
_________1
 62
     7
 10
-31.765495999999999
 20
203.37014400000001
 30
0.0
 40
1.65954
 50
134.565471
 51
152.06895700000001
  0
ARC
  5
257
  8
_________1
 62
     7
 10
-32.241030000000002
 20
203.64481599999999
 30
0.0
 40
1.1109199999999999
 50
153.09702899999999
 51
188.06310300000001
  0
ARC
  5
258
  8
_________1
 62
     7
 10
-32.285111999999998
 20
203.67286100000001
 30
0.0
 40
1.0717449999999999
 50
189.878444
 51
215.466084
  0
ARC
  5
259
  8
_________1
 62
     7
 10
-31.891475
 20
203.92492100000001
 30
0.0
 40
1.5387699999999991
 50
214.60577599999999
 51
230.35006300000001
  0
ARC
  5
25A
  8
_________1
 62
     7
 10
-31.349032999999999
 20
204.53677099999999
 30
0.0
 40
2.356155999999999
 50
229.687682
 51
242.04142100000001
  0
ARC
  5
25B
  8
_________1
 62
     7
 10
-30.752647
 20
205.57533799999999
 30
0.0
 40
3.553337
 50
241.398594
 51
248.661608
  0
ARC
  5
25C
  8
_________1
 62
     7
 10
-30.617819999999998
 20
205.857891
 30
0.0
 40
3.8656480000000002
 50
248.32412199999999
 51
260.62301500000001
  0
ARC
  5
25D
  8
_________1
 62
     7
 10
-30.928343999999999
 20
204.15403599999999
 30
0.0
 40
2.1341600000000001
 50
261.395309
 51
269.50915900000001
  0
LINE
  5
25E
  8
_________1
 62
     7
 10
-30.9466
 20
202.02000000000001
 30
0.0
 11
-29.7684
 21
202.02000000000001
 31
0.0
  0
ARC
  5
25F
  8
_________1
 62
     7
 10
-29.769535999999999
 20
203.873403
 30
0.0
 40
1.8534489999999999
 50
270.03523000000001
 51
278.67613799999998
  0
ARC
  5
260
  8
_________1
 62
     7
 10
-29.933537000000001
 20
205.10403600000001
 30
0.0
 40
3.0948289999999998
 50
278.24077799999998
 51
285.89872200000002
  0
ARC
  5
261
  8
_________1
 62
     7
 10
-30.294139999999999
 20
206.47009800000001
 30
0.0
 40
4.5075010000000004
 50
285.55034499999999
 51
290.41134599999998
  0
ARC
  5
262
  8
_________1
 62
     7
 10
-30.016295
 20
205.75454999999999
 30
0.0
 40
3.7399960000000001
 50
290.24516999999997
 51
299.33898199999999
  0
ARC
  5
263
  8
_________1
 62
     7
 10
-29.359928000000011
 20
204.541787
 30
0.0
 40
2.3612860000000002
 50
299.87392399999999
 51
311.77932800000002
  0
ARC
  5
264
  8
_________1
 62
     7
 10
-28.788302000000002
 20
203.879434
 30
0.0
 40
1.486580999999999
 50
312.35862700000001
 51
332.96718900000002
  0
ARC
  5
265
  8
_________1
 62
     7
 10
-28.410401
 20
203.64997399999999
 30
0.0
 40
1.0461869999999991
 50
334.75474200000002
 51
25.071197999999999
  0
ARC
  5
266
  8
_________1
 62
     7
 10
-28.784607999999999
 20
203.489903
 30
0.0
 40
1.4530289999999999
 50
24.535768000000001
 51
44.541438999999997
  0
ARC
  5
267
  8
_________1
 62
     7
 10
-29.31597
 20
203.01532800000001
 30
0.0
 40
2.164906999999999
 50
43.629389000000003
 51
60.094537000000003
  0
ARC
  5
268
  8
_________1
 62
     7
 10
-29.877020999999999
 20
202.11796000000001
 30
0.0
 40
3.2227480000000002
 50
59.402119999999989
 51
77.157186999999993
  0
ARC
  5
269
  8
_________1
 62
     7
 10
-34.745024000000001
 20
215.27460300000001
 30
0.0
 40
0.674924
 50
177.73934700000001
 51
210.9139439999999
  0
ARC
  5
26A
  8
_________1
 62
     7
 10
-34.444670000000002
 20
215.44144499999999
 30
0.0
 40
1.018386
 50
210.28572
 51
229.391344
  0
ARC
  5
26B
  8
_________1
 62
     7
 10
-33.931663
 20
215.98152200000001
 30
0.0
 40
1.7627159999999991
 50
228.15832599999999
 51
237.46802400000001
  0
ARC
  5
26C
  8
_________1
 62
     7
 10
-33.308529999999998
 20
216.92950400000001
 30
0.0
 40
2.897095999999999
 50
237.16027500000001
 51
245.536464
  0
ARC
  5
26D
  8
_________1
 62
     7
 10
-32.489839000000011
 20
218.64921000000001
 30
0.0
 40
4.8015600000000003
 50
245.14221499999999
 51
251.09605500000001
  0
ARC
  5
26E
  8
_________1
 62
     7
 10
-31.571919000000001
 20
221.231596
 30
0.0
 40
7.5421179999999994
 50
250.854772
 51
255.698283
  0
ARC
  5
26F
  8
_________1
 62
     7
 10
-30.530405999999999
 20
225.19626500000001
 30
0.0
 40
11.641235999999999
 50
255.55137099999999
 51
263.52398899999997
  0
ARC
  5
270
  8
_________1
 62
     7
 10
-30.727481999999998
 20
223.73035999999999
 30
0.0
 40
10.162502
 50
263.69585000000001
 51
267.31791299999998
  0
ARC
  5
271
  8
_________1
 62
     7
 10
-30.436803999999999
 20
229.04241999999999
 30
0.0
 40
15.482403
 50
267.163275
 51
268.81375700000001
  0
ARC
  5
272
  8
_________1
 62
     7
 10
-30.144964999999999
 20
244.04391699999999
 30
0.0
 40
30.486730999999999
 50
268.84907600000003
 51
270.16190699999999
  0
ARC
  5
273
  8
_________1
 62
     7
 10
-30.062373999999998
 20
218.25620499999999
 30
0.0
 40
4.698898999999999
 50
270.04333700000001
 51
272.48405000000002
  0
ARC
  5
274
  8
_________1
 62
     7
 10
-30.344730999999999
 20
225.32072400000001
 30
0.0
 40
11.769042000000001
 50
272.36676199999999
 51
276.213841
  0
ARC
  5
275
  8
_________1
 62
     7
 10
-30.552899
 20
227.907355
 30
0.0
 40
14.363194
 50
275.92251700000003
 51
282.54891700000002
  0
ARC
  5
276
  8
_________1
 62
     7
 10
-29.199494999999999
 20
221.608756
 30
0.0
 40
7.9211470000000004
 50
282.89208100000002
 51
289.87471199999999
  0
ARC
  5
277
  8
_________1
 62
     7
 10
-27.895869999999999
 20
217.901611
 30
0.0
 40
3.991768
 50
290.36730299999999
 51
299.43078199999991
  0
ARC
  5
278
  8
_________1
 62
     7
 10
-26.935165000000001
 20
216.15054000000001
 30
0.0
 40
1.9947499999999989
 50
300.11158
 51
313.38691699999998
  0
ARC
  5
279
  8
_________1
 62
     7
 10
-26.286964000000001
 20
215.43554
 30
0.0
 40
1.0300689999999999
 50
314.50393000000003
 51
334.73639900000001
  0
ARC
  5
27A
  8
_________1
 62
     7
 10
-26.011391
 20
215.28376299999999
 30
0.0
 40
0.7163470000000001
 50
336.308291
 51
1.3968549999999991
  0
ARC
  5
27B
  8
_________1
 62
     7
 10
-31.437836000000001
 20
217.78801000000001
 30
0.0
 40
0.206292
 50
356.717445
 51
37.439990000000002
  0
ARC
  5
27C
  8
_________1
 62
     7
 10
-31.600605999999999
 20
217.67495700000001
 30
0.0
 40
0.404362
 50
36.137715
 51
57.530138000000008
  0
ARC
  5
27D
  8
_________1
 62
     7
 10
-31.853694999999998
 20
217.325729
 30
0.0
 40
0.8352759999999999
 50
55.743659999999998
 51
62.72704199999999
  0
ARC
  5
27E
  8
_________1
 62
     7
 10
-32.077739000000001
 20
216.894013
 30
0.0
 40
1.3216629999999989
 50
62.670160999999993
 51
68.399796000000009
  0
ARC
  5
27F
  8
_________1
 62
     7
 10
-32.466599000000002
 20
215.89800399999999
 30
0.0
 40
2.3908830000000001
 50
68.52215799999999
 51
77.297657000000001
  0
ARC
  5
280
  8
_________1
 62
     7
 10
-33.012300000000003
 20
213.72273799999999
 30
0.0
 40
4.6332180000000003
 50
76.629424
 51
80.645630000000011
  0
ARC
  5
281
  8
_________1
 62
     7
 10
-29.507041999999998
 20
223.91329999999999
 30
0.0
 40
6.2567669999999991
 50
243.90431899999999
 51
245.87641099999999
  0
ARC
  5
282
  8
_________1
 62
     7
 10
-39.236709000000012
 20
201.906462
 30
0.0
 40
17.805067999999999
 50
64.702035999999993
 51
66.244531999999992
  0
ARC
  5
283
  8
_________1
 62
     7
 10
-32.984603999999997
 20
215.185688
 30
0.0
 40
3.127742
 50
55.917982000000002
 51
64.298299
  0
ARC
  5
284
  8
_________1
 62
     7
 10
-32.925677
 20
224.34322700000001
 30
0.0
 40
7.4502069999999998
 50
297.517943
 51
299.33658100000002
  0
ARC
  5
285
  8
_________1
 62
     7
 10
-3.4313649999999991
 20
172.291045
 30
0.0
 40
52.377464000000003
 50
118.795548
 51
119.56570000000001
  0
ARC
  5
286
  8
_________1
 62
     7
 10
-26.132384999999999
 20
213.395984
 30
0.0
 40
5.4214589999999987
 50
115.37622500000001
 51
117.799571
  0
ARC
  5
287
  8
_________1
 62
     7
 10
-28.13266500000001
 20
215.917496
 30
0.0
 40
2.3987129999999999
 50
97.742131999999984
 51
100.98846500000001
  0
ARC
  5
288
  8
_________1
 62
     7
 10
-27.975961000000002
 20
214.977059
 30
0.0
 40
3.3518739999999991
 50
100.553802
 51
107.467586
  0
ARC
  5
289
  8
_________1
 62
     7
 10
-28.470006000000001
 20
216.55652699999999
 30
0.0
 40
1.696945999999999
 50
107.563495
 51
117.78388699999999
  0
ARC
  5
28A
  8
_________1
 62
     7
 10
-28.936581
 20
217.46050399999999
 30
0.0
 40
0.6797530000000001
 50
118.508242
 51
133.85232199999999
  0
ARC
  5
28B
  8
_________1
 62
     7
 10
-29.200309000000001
 20
217.744406
 30
0.0
 40
0.292385
 50
135.12751399999999
 51
160.1833189999999
  0
ARC
  5
28C
  8
_________1
 62
     7
 10
-29.286933000000001
 20
217.78366
 30
0.0
 40
0.197727
 50
162.37535600000001
 51
182.16300299999989
  0
ARC
  5
28D
  8
_________1
 62
     7
 10
-30.878004000000001
 20
218.722838
 30
0.0
 40
1.2512840000000001
 50
236.66636199999999
 51
253.57187099999999
  0
ARC
  5
28E
  8
_________1
 62
     7
 10
-30.372119000000001
 20
219.57431099999999
 30
0.0
 40
2.2411240000000001
 50
228.762396
 51
237.822956
  0
ARC
  5
28F
  8
_________1
 62
     7
 10
-28.979620000000001
 20
221.20028099999999
 30
0.0
 40
4.3818060000000001
 50
221.54306199999999
 51
229.08507999999989
  0
LINE
  5
290
  8
_________1
 62
     7
 10
-32.2592
 20
218.29400000000001
 30
0.0
 11
-32.2592
 21
221.065
 31
0.0
  0
ARC
  5
291
  8
_________1
 62
     7
 10
-31.220745999999998
 20
221.064806
 30
0.0
 40
1.038470999999999
 50
162.460286
 51
179.97542300000001
  0
ARC
  5
292
  8
_________1
 62
     7
 10
-31.794803000000002
 20
221.24702500000001
 30
0.0
 40
0.4361890000000001
 50
138.89606000000001
 51
162.55822900000001
  0
ARC
  5
293
  8
_________1
 62
     7
 10
-28.681391000000001
 20
221.42661200000001
 30
0.0
 40
0.140075
 50
36.444394000000003
 51
49.918568999999991
  0
ARC
  5
294
  8
_________1
 62
     7
 10
-28.795760000000001
 20
221.33976999999999
 30
0.0
 40
0.283671
 50
25.489992000000001
 51
36.83189500000001
  0
ARC
  5
295
  8
_________1
 62
     7
 10
-29.068387999999999
 20
221.20784399999999
 30
0.0
 40
0.5865390000000001
 50
17.253796000000001
 51
25.661701000000011
  0
ARC
  5
296
  8
_________1
 62
     7
 10
-29.628249
 20
221.033671
 30
0.0
 40
1.1728670000000001
 50
1.542889999999999
 51
17.267347000000001
  0
LINE
  5
297
  8
_________1
 62
     7
 10
-28.4558
 20
221.065
 30
0.0
 11
-28.4558
 21
218.29400000000001
 31
0.0
  0
ARC
  5
298
  8
_________1
 62
     7
 10
-33.184519000000002
 20
222.64035999999999
 30
0.0
 40
6.4225050000000001
 50
313.118808
 51
317.41482300000001
  0
ARC
  5
299
  8
_________1
 62
     7
 10
-30.699126
 20
220.02793399999999
 30
0.0
 40
2.8169419999999992
 50
304.582448
 51
312.53801299999998
  0
ARC
  5
29A
  8
_________1
 62
     7
 10
-29.919802000000001
 20
218.911326
 30
0.0
 40
1.4553100000000001
 50
287.40352000000001
 51
304.27342499999997
  0
ARC
  5
29B
  8
_________1
 62
     7
 10
-34.862482
 20
222.71401
 30
0.0
 40
0.6764859999999999
 50
179.979107
 51
210.172169
  0
ARC
  5
29C
  8
_________1
 62
     7
 10
-34.605891999999997
 20
222.84528499999999
 30
0.0
 40
0.9644159999999999
 50
209.25294700000001
 51
222.42314400000001
  0
ARC
  5
29D
  8
_________1
 62
     7
 10
-34.217084
 20
223.18637100000001
 30
0.0
 40
1.481562
 50
222.01683800000001
 51
233.240196
  0
ARC
  5
29E
  8
_________1
 62
     7
 10
-33.652557000000002
 20
223.90937600000001
 30
0.0
 40
2.398725999999999
 50
232.772479
 51
240.97264300000001
  0
ARC
  5
29F
  8
_________1
 62
     7
 10
-32.929229999999997
 20
225.16977600000001
 30
0.0
 40
3.851839
 50
240.661935
 51
247.35772900000009
  0
ARC
  5
2A0
  8
_________1
 62
     7
 10
-32.049979999999998
 20
227.208752
 30
0.0
 40
6.0722129999999988
 50
247.10744199999999
 51
252.71892299999999
  0
ARC
  5
2A1
  8
_________1
 62
     7
 10
-31.272003999999999
 20
229.604288
 30
0.0
 40
8.5907739999999997
 50
252.51057299999999
 51
258.41304000000002
  0
ARC
  5
2A2
  8
_________1
 62
     7
 10
-32.125211999999998
 20
225.440335
 30
0.0
 40
4.3403070000000001
 50
258.406025
 51
260.82340499999998
  0
ARC
  5
2A3
  8
_________1
 62
     7
 10
-46.206237000000002
 20
135.111389
 30
0.0
 40
87.079639000000014
 50
80.649034999999984
 51
81.155451999999997
  0
ARC
  5
2A4
  8
_________1
 62
     7
 10
-32.660603999999999
 20
218.14034599999999
 30
0.0
 40
2.9557349999999989
 50
72.624688000000006
 51
78.224671000000001
  0
ARC
  5
2A5
  8
_________1
 62
     7
 10
-32.336976999999997
 20
219.223096
 30
0.0
 40
1.825804999999999
 50
63.972407000000011
 51
72.170224000000005
  0
ARC
  5
2A6
  8
_________1
 62
     7
 10
-31.944949999999999
 20
220.037845
 30
0.0
 40
0.921677
 50
49.932921999999998
 51
63.646250000000002
  0
ARC
  5
2A7
  8
_________1
 62
     7
 10
-31.625973999999999
 20
220.42784
 30
0.0
 40
0.417955
 50
28.526586000000002
 51
48.983826000000001
  0
ARC
  5
2A8
  8
_________1
 62
     7
 10
-31.480471999999999
 20
220.514984
 30
0.0
 40
0.248602
 50
0.574677
 51
26.89515200000001
  0
LINE
  5
2A9
  8
_________1
 62
     7
 10
-31.2319
 20
220.517
 30
0.0
 11
-31.231200000000001
 21
217.22999999999999
 31
0.0
  0
LINE
  5
2AA
  8
_________1
 62
     7
 10
-31.231200000000001
 20
217.22999999999999
 30
0.0
 11
-29.484500000000001
 21
217.22999999999999
 31
0.0
  0
LINE
  5
2AB
  8
_________1
 62
     7
 10
-29.484500000000001
 20
217.22999999999999
 30
0.0
 11
-29.484500000000001
 21
220.517
 31
0.0
  0
ARC
  5
2AC
  8
_________1
 62
     7
 10
-29.239433999999999
 20
220.51663600000001
 30
0.0
 40
0.245087
 50
142.201897
 51
179.803246
  0
ARC
  5
2AD
  8
_________1
 62
     7
 10
-29.038273
 20
220.37939299999999
 30
0.0
 40
0.4883790000000001
 50
124.012795
 51
143.94332700000001
  0
ARC
  5
2AE
  8
_________1
 62
     7
 10
-28.692399999999999
 20
219.91088300000001
 30
0.0
 40
1.070489
 50
112.099158
 51
125.330894
  0
ARC
  5
2AF
  8
_________1
 62
     7
 10
-28.428851000000002
 20
219.34221299999999
 30
0.0
 40
1.6968009999999989
 50
108.910742
 51
113.120553
  0
ARC
  5
2B0
  8
_________1
 62
     7
 10
-28.077507000000001
 20
218.32410100000001
 30
0.0
 40
2.7738290000000001
 50
101.828981
 51
108.960645
  0
ARC
  5
2B1
  8
_________1
 62
     7
 10
-27.518982000000001
 20
215.849592
 30
0.0
 40
5.310427999999999
 50
99.383797999999985
 51
102.254197
  0
ARC
  5
2B2
  8
_________1
 62
     7
 10
-42.640413000000002
 20
311.43614600000001
 30
0.0
 40
91.464943999999988
 50
278.96659399999999
 51
279.49939799999999
  0
ARC
  5
2B3
  8
_________1
 62
     7
 10
-28.328514999999999
 20
224.98765599999999
 30
0.0
 40
3.8428870000000002
 50
281.75970899999999
 51
283.00674199999997
  0
ARC
  5
2B4
  8
_________1
 62
     7
 10
-29.050384999999999
 20
228.11360999999999
 30
0.0
 40
7.0511089999999994
 50
283.00515799999999
 51
294.45887399999998
  0
ARC
  5
2B5
  8
_________1
 62
     7
 10
-27.548342000000002
 20
224.70267699999999
 30
0.0
 40
3.324675
 50
295.23464999999999
 51
305.71817900000002
  0
ARC
  5
2B6
  8
_________1
 62
     7
 10
-26.573691
 20
223.296752
 30
0.0
 40
1.6144769999999991
 50
306.76372500000002
 51
317.22519599999998
  0
ARC
  5
2B7
  8
_________1
 62
     7
 10
-26.073322000000001
 20
222.82621700000001
 30
0.0
 40
0.927659
 50
317.56957799999998
 51
337.50336700000003
  0
ARC
  5
2B8
  8
_________1
 62
     7
 10
-25.781413000000001
 20
222.687015
 30
0.0
 40
0.604937
 50
339.10578900000002
 51
2.581013
  0
LINE
  5
2B9
  8
_________1
 62
     7
 10
-29.858000000000001
 20
220.27500000000001
 30
0.0
 11
-29.858000000000001
 21
220.86500000000001
 31
0.0
  0
ARC
  5
2BA
  8
_________1
 62
     7
 10
-29.53387
 20
220.863032
 30
0.0
 40
0.324104
 50
135.61009999999999
 51
179.697036
  0
ARC
  5
2BB
  8
_________1
 62
     7
 10
-29.276672999999999
 20
220.65013999999999
 30
0.0
 40
0.6574100000000001
 50
121.156425
 51
138.03264899999999
  0
ARC
  5
2BC
  8
_________1
 62
     7
 10
-28.877883000000001
 20
220.038205
 30
0.0
 40
1.387621999999999
 50
110.316177
 51
122.174977
  0
ARC
  5
2BD
  8
_________1
 62
     7
 10
-28.258437000000001
 20
218.49617900000001
 30
0.0
 40
3.049131
 50
103.371995
 51
111.171538
  0
ARC
  5
2BE
  8
_________1
 62
     7
 10
-27.572106000000002
 20
215.867637
 30
0.0
 40
5.7654509999999997
 50
101.26074199999999
 51
103.96642900000001
  0
ARC
  5
2BF
  8
_________1
 62
     7
 10
-26.966647999999999
 20
212.824805
 30
0.0
 40
8.8679339999999982
 50
99.012090999999998
 51
101.25825500000001
  0
ARC
  5
2C0
  8
_________1
 62
     7
 10
-41.788037999999993
 20
309.95921299999998
 30
0.0
 40
89.390906000000001
 50
278.64227
 51
278.99568599999998
  0
ARC
  5
2C1
  8
_________1
 62
     7
 10
-29.190449999999998
 20
228.28317200000001
 30
0.0
 40
6.7576869999999989
 50
281.77964100000003
 51
293.46121799999997
  0
ARC
  5
2C2
  8
_________1
 62
     7
 10
-27.922218999999998
 20
225.236841
 30
0.0
 40
3.4586309999999991
 50
294.28033900000003
 51
301.32023199999998
  0
ARC
  5
2C3
  8
_________1
 62
     7
 10
-27.119546
 20
223.907689
 30
0.0
 40
1.9059309999999989
 50
301.47704900000002
 51
315.10920199999998
  0
ARC
  5
2C4
  8
_________1
 62
     7
 10
-26.44220300000001
 20
223.204984
 30
0.0
 40
0.9303360000000001
 50
316.32827900000001
 51
337.008261
  0
ARC
  5
2C5
  8
_________1
 62
     7
 10
-26.160477
 20
223.06470200000001
 30
0.0
 40
0.6164920000000002
 50
338.783388
 51
359.68865199999999
  0
ARC
  5
2C6
  8
_________1
 62
     7
 10
-26.267420000000001
 20
223.058582
 30
0.0
 40
0.7234310000000001
 50
0.219405
 51
37.352935000000002
  0
ARC
  5
2C7
  8
_________1
 62
     7
 10
-26.642008000000001
 20
222.811061
 30
0.0
 40
1.1717699999999991
 50
35.860734000000001
 51
51.468952999999999
  0
ARC
  5
2C8
  8
_________1
 62
     7
 10
-27.089380999999999
 20
222.29731799999999
 30
0.0
 40
1.852584
 50
50.543052000000003
 51
57.972018000000013
  0
ARC
  5
2C9
  8
_________1
 62
     7
 10
-27.616039000000001
 20
221.46291299999999
 30
0.0
 40
2.8392900000000001
 50
57.891655999999998
 51
66.069458999999995
  0
ARC
  5
2CA
  8
_________1
 62
     7
 10
-28.283089
 20
220.009334
 30
0.0
 40
4.4385370000000002
 50
65.810048999999992
 51
71.724631000000002
  0
ARC
  5
2CB
  8
_________1
 62
     7
 10
-29.00345900000001
 20
217.881381
 30
0.0
 40
6.6850750000000003
 50
71.581140000000005
 51
77.454543999999984
  0
ARC
  5
2CC
  8
_________1
 62
     7
 10
-29.814945999999999
 20
214.40510800000001
 30
0.0
 40
10.254681
 50
77.247714999999999
 51
83.695206999999996
  0
ARC
  5
2CD
  8
_________1
 62
     7
 10
-30.374656999999999
 20
210.020757
 30
0.0
 40
14.674170999999999
 50
83.402962000000002
 51
98.022953999999999
  0
ARC
  5
2CE
  8
_________1
 62
     7
 10
-31.073644000000002
 20
215.433063
 30
0.0
 40
9.2174990000000001
 50
98.416118999999995
 51
105.331688
  0
ARC
  5
2CF
  8
_________1
 62
     7
 10
-32.072308
 20
219.21665400000001
 30
0.0
 40
5.304638999999999
 50
105.734393
 51
113.567677
  0
ARC
  5
2D0
  8
_________1
 62
     7
 10
-33.055436999999998
 20
221.50709699999999
 30
0.0
 40
2.8121969999999998
 50
113.86652100000001
 51
127.62650499999999
  0
ARC
  5
2D1
  8
_________1
 62
     7
 10
-33.908701000000001
 20
222.66723999999999
 30
0.0
 40
1.372812999999999
 50
128.98264
 51
149.832651
  0
ARC
  5
2D2
  8
_________1
 62
     7
 10
-34.489474000000001
 20
223.03307699999999
 30
0.0
 40
0.68729
 50
151.87006400000001
 51
180.1056429999999
  0
ARC
  5
2D3
  8
_________1
 62
     7
 10
-34.600673999999998
 20
223.056647
 30
0.0
 40
0.576624
 50
182.46868799999999
 51
207.31185199999999
  0
ARC
  5
2D4
  8
_________1
 62
     7
 10
-34.380206000000001
 20
223.159494
 30
0.0
 40
0.8197629999999998
 50
206.62855999999999
 51
220.88364200000001
  0
ARC
  5
2D5
  8
_________1
 62
     7
 10
-34.000788999999997
 20
223.47404700000001
 30
0.0
 40
1.3125420000000001
 50
220.42428899999999
 51
232.13338100000001
  0
ARC
  5
2D6
  8
_________1
 62
     7
 10
-33.433914999999999
 20
224.171121
 30
0.0
 40
2.2108910000000002
 50
231.624595
 51
240.48860400000001
  0
ARC
  5
2D7
  8
_________1
 62
     7
 10
-32.666322999999998
 20
225.47484399999999
 30
0.0
 40
3.7236679999999991
 50
240.09172599999999
 51
247.188751
  0
ARC
  5
2D8
  8
_________1
 62
     7
 10
-31.732686000000001
 20
227.612707
 30
0.0
 40
6.056373999999999
 50
246.88817599999999
 51
255.9145
  0
ARC
  5
2D9
  8
_________1
 62
     7
 10
-32.920690999999998
 20
222.88017099999999
 30
0.0
 40
1.177003
 50
255.9402850000001
 51
260.75182699999999
  0
ARC
  5
2DA
  8
_________1
 62
     7
 10
-30.123906000000002
 20
239.14334700000001
 30
0.0
 40
17.678865999999999
 50
260.27620100000001
 51
261.64609999999999
  0
ARC
  5
2DB
  8
_________1
 62
     7
 10
-34.330263000000002
 20
210.87508800000001
 30
0.0
 40
10.90072
 50
76.986538999999993
 51
81.358518000000004
  0
ARC
  5
2DC
  8
_________1
 62
     7
 10
-32.886769999999999
 20
217.26284000000001
 30
0.0
 40
4.3520959999999986
 50
70.275925000000001
 51
76.565606999999986
  0
ARC
  5
2DD
  8
_________1
 62
     7
 10
-32.086238000000002
 20
219.53684799999999
 30
0.0
 40
1.941384
 50
60.821915000000011
 51
69.865911999999994
  0
ARC
  5
2DE
  8
_________1
 62
     7
 10
-31.573547000000001
 20
220.47163599999999
 30
0.0
 40
0.8753
 50
46.008091999999991
 51
60.291778999999998
  0
ARC
  5
2DF
  8
_________1
 62
     7
 10
-31.252289000000001
 20
220.816213
 30
0.0
 40
0.40435
 50
17.186823
 51
44.845756999999992
  0
ARC
  5
2E0
  8
_________1
 62
     7
 10
-31.142096000000009
 20
220.86485999999999
 30
0.0
 40
0.285042
 50
359.97685300000001
 51
14.388731999999999
  0
LINE
  5
2E1
  8
_________1
 62
     7
 10
-30.857099999999999
 20
220.86500000000001
 30
0.0
 11
-30.857099999999999
 21
220.27500000000001
 31
0.0
  0
LINE
  5
2E2
  8
_________1
 62
     7
 10
-30.857099999999999
 20
220.27500000000001
 30
0.0
 11
-29.858000000000001
 21
220.27500000000001
 31
0.0
  0
LINE
  5
2E3
  8
_________1
 62
     7
 10
-27.362300000000001
 20
205.262
 30
0.0
 11
-27.362300000000001
 21
203.685
 31
0.0
  0
ARC
  5
2E4
  8
_________1
 62
     7
 10
-28.941274
 20
203.538635
 30
0.0
 40
1.0946409999999991
 50
2.9547959999999991
 51
43.106758999999997
  0
ARC
  5
2E5
  8
_________1
 62
     7
 10
-29.273627000000001
 20
203.259331
 30
0.0
 40
1.5283260000000001
 50
42.236901000000003
 51
57.414117000000012
  0
ARC
  5
2E6
  8
_________1
 62
     7
 10
-29.72982
 20
202.58787899999999
 30
0.0
 40
2.3398819999999989
 50
56.856742999999987
 51
71.433194999999998
  0
ARC
  5
2E7
  8
_________1
 62
     7
 10
-30.197492
 20
201.341759
 30
0.0
 40
3.6703519999999989
 50
70.706443999999991
 51
84.424730999999994
  0
ARC
  5
2E8
  8
_________1
 62
     7
 10
-30.348243
 20
200.35388699999999
 30
0.0
 40
4.6685089999999994
 50
83.761212
 51
103.307778
  0
ARC
  5
2E9
  8
_________1
 62
     7
 10
-30.643032000000002
 20
201.747669
 30
0.0
 40
3.2444769999999989
 50
103.90733899999999
 51
114.95715199999999
  0
ARC
  5
2EA
  8
_________1
 62
     7
 10
-31.114038999999998
 20
202.802772
 30
0.0
 40
2.0892369999999989
 50
115.455309
 51
129.64218399999999
  0
ARC
  5
2EB
  8
_________1
 62
     7
 10
-31.593871
 20
203.40858299999999
 30
0.0
 40
1.3167180000000001
 50
130.38238799999999
 51
152.62474
  0
ARC
  5
2EC
  8
_________1
 62
     7
 10
-31.829342
 20
203.557332
 30
0.0
 40
1.039493
 50
153.93767700000001
 51
177.23566299999999
  0
ARC
  5
2ED
  8
_________1
 62
     7
 10
-31.763624
 20
203.66560100000001
 30
0.0
 40
1.105529999999999
 50
183.0144469999999
 51
222.96607399999999
  0
ARC
  5
2EE
  8
_________1
 62
     7
 10
-31.434674000000001
 20
203.94083000000001
 30
0.0
 40
1.5339979999999991
 50
222.11447999999999
 51
237.28339600000001
  0
ARC
  5
2EF
  8
_________1
 62
     7
 10
-30.979586000000001
 20
204.60612399999999
 30
0.0
 40
2.3398300000000001
 50
236.71260799999999
 51
251.31682699999999
  0
ARC
  5
2F0
  8
_________1
 62
     7
 10
-30.511731000000001
 20
205.84482800000001
 30
0.0
 40
3.6634229999999999
 50
250.59109000000001
 51
264.34567399999997
  0
ARC
  5
2F1
  8
_________1
 62
     7
 10
-30.361142999999998
 20
206.82101800000001
 30
0.0
 40
4.6500099999999991
 50
263.68430699999999
 51
283.307433
  0
ARC
  5
2F2
  8
_________1
 62
     7
 10
-30.067177999999998
 20
205.43063599999999
 30
0.0
 40
3.2294770000000002
 50
283.90996100000001
 51
295.007161
  0
ARC
  5
2F3
  8
_________1
 62
     7
 10
-29.597985999999999
 20
204.38220699999999
 30
0.0
 40
2.0810680000000001
 50
295.50262199999997
 51
309.7431279999999
  0
ARC
  5
2F4
  8
_________1
 62
     7
 10
-29.135003999999999
 20
203.793161
 30
0.0
 40
1.3322929999999991
 50
310.62950499999999
 51
332.62363999999991
  0
ARC
  5
2F5
  8
_________1
 62
     7
 10
-28.890243999999999
 20
203.63657699999999
 30
0.0
 40
1.0432790000000001
 50
334.07902000000001
 51
357.34062799999998
  0
LINE
  5
2F6
  8
_________1
 62
     7
 10
-27.848099999999999
 20
203.58799999999999
 30
0.0
 11
-27.848099999999999
 21
203.595
 31
0.0
  0
LINE
  5
2F7
  8
_________1
 62
     7
 10
-30.109500000000001
 20
203.79599999999999
 30
0.0
 11
-30.109500000000001
 21
203.637
 31
0.0
  0
LINE
  5
2F8
  8
_________1
 62
     7
 10
-30.4481
 20
203.82400000000001
 30
0.0
 11
-30.4481
 21
203.75
 31
0.0
  0
LINE
  5
2F9
  8
_________1
 62
     7
 10
-31.0562
 20
203.82400000000001
 30
0.0
 11
-31.0562
 21
203.637
 31
0.0
  0
LINE
  5
2FA
  8
_________1
 62
     7
 10
-30.6738
 20
203.97399999999999
 30
0.0
 11
-30.9315
 21
204.22900000000001
 31
0.0
  0
LINE
  5
2FB
  8
_________1
 62
     7
 10
-30.0381
 20
203.97200000000001
 30
0.0
 11
-29.780799999999999
 21
204.22900000000001
 31
0.0
  0
LINE
  5
2FC
  8
_________1
 62
     7
 10
-29.770499999999998
 20
203.833
 30
0.0
 11
-29.273299999999999
 21
203.99799999999999
 31
0.0
  0
LINE
  5
2FD
  8
_________1
 62
     7
 10
-29.659199999999998
 20
203.595
 30
0.0
 11
-28.991900000000001
 21
203.595
 31
0.0
  0
LINE
  5
2FE
  8
_________1
 62
     7
 10
-29.659199999999998
 20
203.636
 30
0.0
 11
-29.0001
 21
203.636
 31
0.0
  0
LINE
  5
2FF
  8
_________1
 62
     7
 10
-29.9072
 20
203.20699999999999
 30
0.0
 11
-29.640899999999998
 21
202.94300000000001
 31
0.0
  0
LINE
  5
300
  8
_________1
 62
     7
 10
-30.8109
 20
203.209
 30
0.0
 11
-31.076899999999998
 21
202.94499999999999
 31
0.0
  0
LINE
  5
301
  8
_________1
 62
     7
 10
-31.036200000000001
 20
203.417
 30
0.0
 11
-31.5654
 21
203.24100000000001
 31
0.0
  0
LINE
  5
302
  8
_________1
 62
     7
 10
-31.0562
 20
203.59700000000001
 30
0.0
 11
-31.723800000000001
 21
203.59700000000001
 31
0.0
  0
LINE
  5
303
  8
_________1
 62
     7
 10
-31.0562
 20
203.637
 30
0.0
 11
-31.7135
 21
203.637
 31
0.0
  0
LINE
  5
304
  8
_________1
 62
     7
 10
-30.943200000000001
 20
203.834
 30
0.0
 11
-31.440300000000001
 21
203.99799999999999
 31
0.0
  0
LINE
  5
305
  8
_________1
 62
     7
 10
-29.6799
 20
203.41499999999999
 30
0.0
 11
-29.151700000000002
 21
203.239
 31
0.0
  0
LINE
  5
306
  8
_________1
 62
     7
 10
-31.700399999999998
 20
204.08600000000001
 30
0.0
 11
-32.0914
 21
204.215
 31
0.0
  0
LINE
  5
307
  8
_________1
 62
     7
 10
-31.4438
 20
204.27000000000001
 30
0.0
 11
-31.7376
 21
204.43899999999999
 31
0.0
  0
LINE
  5
308
  8
_________1
 62
     7
 10
-31.110600000000002
 20
204.40899999999999
 30
0.0
 11
-31.307700000000001
 21
204.60300000000001
 31
0.0
  0
LINE
  5
309
  8
_________1
 62
     7
 10
-30.728200000000001
 20
204.494
 30
0.0
 11
-30.825399999999998
 21
204.70099999999999
 31
0.0
  0
LINE
  5
30A
  8
_________1
 62
     7
 10
-29.986499999999999
 20
204.494
 30
0.0
 11
-29.890000000000001
 21
204.70099999999999
 31
0.0
  0
LINE
  5
30B
  8
_________1
 62
     7
 10
-29.604099999999999
 20
204.40899999999999
 30
0.0
 11
-29.406700000000001
 21
204.60300000000001
 31
0.0
  0
LINE
  5
30C
  8
_________1
 62
     7
 10
-29.271599999999999
 20
204.27000000000001
 30
0.0
 11
-28.9771
 21
204.43899999999999
 31
0.0
  0
LINE
  5
30D
  8
_________1
 62
     7
 10
-29.0139
 20
204.08600000000001
 30
0.0
 11
-28.623200000000001
 21
204.215
 31
0.0
  0
LINE
  5
30E
  8
_________1
 62
     7
 10
-28.848600000000001
 20
203.87
 30
0.0
 11
-28.371700000000001
 21
203.94399999999999
 31
0.0
  0
LINE
  5
30F
  8
_________1
 62
     7
 10
-28.7852
 20
203.637
 30
0.0
 11
-28.245699999999999
 21
203.637
 31
0.0
  0
LINE
  5
310
  8
_________1
 62
     7
 10
-28.782399999999999
 20
203.39699999999999
 30
0.0
 11
-28.299399999999999
 21
203.322
 31
0.0
  0
LINE
  5
311
  8
_________1
 62
     7
 10
-28.9099
 20
203.16200000000001
 30
0.0
 11
-28.5016
 21
203.02600000000001
 31
0.0
  0
LINE
  5
312
  8
_________1
 62
     7
 10
-29.1355
 20
202.94499999999999
 30
0.0
 11
-28.831299999999999
 21
202.77099999999999
 31
0.0
  0
LINE
  5
313
  8
_________1
 62
     7
 10
-29.4559
 20
202.76599999999999
 30
0.0
 11
-29.264700000000001
 21
202.57400000000001
 31
0.0
  0
LINE
  5
314
  8
_________1
 62
     7
 10
-29.867599999999999
 20
202.649
 30
0.0
 11
-29.771799999999999
 21
202.446
 31
0.0
  0
LINE
  5
315
  8
_________1
 62
     7
 10
-30.842600000000001
 20
202.666
 30
0.0
 11
-30.943200000000001
 21
202.446
 31
0.0
  0
LINE
  5
316
  8
_________1
 62
     7
 10
-31.251899999999999
 20
202.77099999999999
 30
0.0
 11
-31.450600000000001
 21
202.57400000000001
 31
0.0
  0
LINE
  5
317
  8
_________1
 62
     7
 10
-31.5792
 20
202.94499999999999
 30
0.0
 11
-31.883700000000001
 21
202.77099999999999
 31
0.0
  0
LINE
  5
318
  8
_________1
 62
     7
 10
-31.8065
 20
203.16200000000001
 30
0.0
 11
-32.213700000000003
 21
203.02600000000001
 31
0.0
  0
LINE
  5
319
  8
_________1
 62
     7
 10
-31.9175
 20
203.40000000000001
 30
0.0
 11
-32.417700000000011
 21
203.322
 31
0.0
  0
LINE
  5
31A
  8
_________1
 62
     7
 10
-31.9071
 20
203.35599999999999
 30
0.0
 11
-32.398099999999999
 21
203.28
 31
0.0
  0
LINE
  5
31B
  8
_________1
 62
     7
 10
-32.417700000000011
 20
203.595
 30
0.0
 11
-32.417700000000011
 21
203.322
 31
0.0
  0
LINE
  5
31C
  8
_________1
 62
     7
 10
-31.929500000000001
 20
203.637
 30
0.0
 11
-32.468699999999998
 21
203.637
 31
0.0
  0
LINE
  5
31D
  8
_________1
 62
     7
 10
-31.866499999999998
 20
203.87
 30
0.0
 11
-32.344000000000001
 21
203.94399999999999
 31
0.0
  0
LINE
  5
31E
  8
_________1
 62
     7
 10
-32.417700000000011
 20
203.322
 30
0.0
 11
-32.398099999999999
 21
203.28
 31
0.0
  0
LINE
  5
31F
  8
_________1
 62
     7
 10
-33.353400000000001
 20
205.26400000000001
 30
0.0
 11
-33.353400000000001
 21
203.685
 31
0.0
  0
ARC
  5
320
  8
_________1
 62
     7
 10
-31.289421000000001
 20
203.20991000000001
 30
0.0
 40
1.327945999999999
 50
137.260592
 51
153.42627300000001
  0
ARC
  5
321
  8
_________1
 62
     7
 10
-31.809010000000001
 20
203.49902
 30
0.0
 40
0.7343790000000001
 50
155.46546000000001
 51
215.65469900000011
  0
ARC
  5
322
  8
_________1
 62
     7
 10
-31.485189999999999
 20
203.734354
 30
0.0
 40
1.134676
 50
215.77915200000001
 51
229.96393599999999
  0
ARC
  5
323
  8
_________1
 62
     7
 10
-31.038318
 20
204.24547999999999
 30
0.0
 40
1.8135220000000001
 50
229.54214300000001
 51
244.740003
  0
ARC
  5
324
  8
_________1
 62
     7
 10
-30.493144000000001
 20
205.29065700000001
 30
0.0
 40
2.9917699999999998
 50
243.839101
 51
257.963638
  0
ARC
  5
325
  8
_________1
 62
     7
 10
-30.279095000000002
 20
206.07057
 30
0.0
 40
3.7994609999999991
 50
257.25928900000002
 51
281.37604199999998
  0
ARC
  5
326
  8
_________1
 62
     7
 10
-30.087596999999999
 20
204.87530799999999
 30
0.0
 40
2.590354
 50
282.43841600000002
 51
295.18901399999999
  0
ARC
  5
327
  8
_________1
 62
     7
 10
-29.790510999999999
 20
204.208755
 30
0.0
 40
1.860801999999999
 50
295.64634999999998
 51
316.85940099999999
  0
ARC
  5
328
  8
_________1
 62
     7
 10
-29.375429
 20
203.79262900000001
 30
0.0
 40
1.2735369999999999
 50
317.750629
 51
334.22020900000001
  0
ARC
  5
329
  8
_________1
 62
     7
 10
-28.889263
 20
203.52887100000001
 30
0.0
 40
0.721517
 50
336.29059999999998
 51
36.854113000000012
  0
ARC
  5
32A
  8
_________1
 62
     7
 10
-29.238934000000011
 20
203.27723
 30
0.0
 40
1.1522699999999999
 50
36.437868999999999
 51
50.360328000000003
  0
ARC
  5
32B
  8
_________1
 62
     7
 10
-29.689692000000001
 20
202.754445
 30
0.0
 40
1.842466999999999
 50
49.93735499999999
 51
64.849354000000005
  0
ARC
  5
32C
  8
_________1
 62
     7
 10
-30.234677000000001
 20
201.70289700000001
 30
0.0
 40
3.0262950000000002
 50
63.970663999999992
 51
77.872028
  0
ARC
  5
32D
  8
_________1
 62
     7
 10
-30.446083999999999
 20
200.93670299999999
 30
0.0
 40
3.8200780000000001
 50
77.186350000000004
 51
101.007808
  0
ARC
  5
32E
  8
_________1
 62
     7
 10
-30.631354000000002
 20
202.151219
 30
0.0
 40
2.5930149999999998
 50
102.113617
 51
114.727839
  0
ARC
  5
32F
  8
_________1
 62
     7
 10
-30.932869
 20
202.84102899999999
 30
0.0
 40
1.8403890000000001
 50
115.18506499999999
 51
136.35945599999999
  0
LINE
  5
330
  8
_________1
 62
     7
 10
-31.2319
 20
217.22999999999999
 30
0.0
 11
-31.223299999999998
 21
217.18799999999999
 31
0.0
  0
LINE
  5
331
  8
_________1
 62
     7
 10
-31.223299999999998
 20
217.18799999999999
 30
0.0
 11
-31.1967
 21
217.14599999999999
 31
0.0
  0
LINE
  5
332
  8
_________1
 62
     7
 10
-31.1967
 20
217.14599999999999
 30
0.0
 11
-31.1526
 21
217.107
 31
0.0
  0
LINE
  5
333
  8
_________1
 62
     7
 10
-31.1526
 20
217.107
 30
0.0
 11
-31.093399999999999
 21
217.06999999999999
 31
0.0
  0
LINE
  5
334
  8
_________1
 62
     7
 10
-31.093399999999999
 20
217.06999999999999
 30
0.0
 11
-31.018999999999998
 21
217.03399999999999
 31
0.0
  0
LINE
  5
335
  8
_________1
 62
     7
 10
-31.018999999999998
 20
217.03399999999999
 30
0.0
 11
-30.9315
 21
217.00399999999999
 31
0.0
  0
LINE
  5
336
  8
_________1
 62
     7
 10
-30.9315
 20
217.00399999999999
 30
0.0
 11
-30.830500000000001
 21
216.97999999999999
 31
0.0
  0
LINE
  5
337
  8
_________1
 62
     7
 10
-30.830500000000001
 20
216.97999999999999
 30
0.0
 11
-30.721299999999999
 21
216.959
 31
0.0
  0
LINE
  5
338
  8
_________1
 62
     7
 10
-30.721299999999999
 20
216.959
 30
0.0
 11
-30.604900000000001
 21
216.94300000000001
 31
0.0
  0
LINE
  5
339
  8
_________1
 62
     7
 10
-30.604900000000001
 20
216.94300000000001
 30
0.0
 11
-30.483599999999999
 21
216.934
 31
0.0
  0
LINE
  5
33A
  8
_________1
 62
     7
 10
-30.483599999999999
 20
216.934
 30
0.0
 11
-30.360299999999999
 21
216.93100000000001
 31
0.0
  0
LINE
  5
33B
  8
_________1
 62
     7
 10
-30.360299999999999
 20
216.93100000000001
 30
0.0
 11
-30.235600000000002
 21
216.934
 31
0.0
  0
LINE
  5
33C
  8
_________1
 62
     7
 10
-30.235600000000002
 20
216.934
 30
0.0
 11
-30.113900000000001
 21
216.94300000000001
 31
0.0
  0
LINE
  5
33D
  8
_________1
 62
     7
 10
-30.113900000000001
 20
216.94300000000001
 30
0.0
 11
-29.997800000000002
 21
216.959
 31
0.0
  0
LINE
  5
33E
  8
_________1
 62
     7
 10
-29.997800000000002
 20
216.959
 30
0.0
 11
-29.888300000000001
 21
216.97800000000001
 31
0.0
  0
LINE
  5
33F
  8
_________1
 62
     7
 10
-29.888300000000001
 20
216.97800000000001
 30
0.0
 11
-29.787700000000001
 21
217.00399999999999
 31
0.0
  0
LINE
  5
340
  8
_________1
 62
     7
 10
-29.787700000000001
 20
217.00399999999999
 30
0.0
 11
-29.6995
 21
217.03399999999999
 31
0.0
  0
LINE
  5
341
  8
_________1
 62
     7
 10
-29.6995
 20
217.03399999999999
 30
0.0
 11
-29.623699999999999
 21
217.06800000000001
 31
0.0
  0
LINE
  5
342
  8
_________1
 62
     7
 10
-29.623699999999999
 20
217.06800000000001
 30
0.0
 11
-29.563800000000001
 21
217.10499999999999
 31
0.0
  0
LINE
  5
343
  8
_________1
 62
     7
 10
-29.563800000000001
 20
217.10499999999999
 30
0.0
 11
-29.5197
 21
217.14599999999999
 31
0.0
  0
LINE
  5
344
  8
_________1
 62
     7
 10
-29.5197
 20
217.14599999999999
 30
0.0
 11
-29.492799999999999
 21
217.18600000000001
 31
0.0
  0
LINE
  5
345
  8
_________1
 62
     7
 10
-29.492799999999999
 20
217.18600000000001
 30
0.0
 11
-29.484500000000001
 21
217.22800000000001
 31
0.0
  0
LINE
  5
346
  8
_________1
 62
     7
 10
-29.484500000000001
 20
217.22800000000001
 30
0.0
 11
-29.484500000000001
 21
217.22999999999999
 31
0.0
  0
ARC
  5
347
  8
_________1
 62
     7
 10
-29.797930999999998
 20
220.51887300000001
 30
0.0
 40
0.3134139999999999
 50
359.74488700000001
 51
44.781692999999997
  0
ARC
  5
348
  8
_________1
 62
     7
 10
-29.862054000000001
 20
220.474007
 30
0.0
 40
0.39076
 50
42.827845000000003
 51
89.401227000000006
  0
LINE
  5
349
  8
_________1
 62
     7
 10
-29.484500000000001
 20
219.92699999999999
 30
0.0
 11
-29.504200000000001
 21
220.03999999999999
 31
0.0
  0
LINE
  5
34A
  8
_________1
 62
     7
 10
-29.504200000000001
 20
220.03999999999999
 30
0.0
 11
-29.561699999999998
 21
220.14099999999999
 31
0.0
  0
LINE
  5
34B
  8
_________1
 62
     7
 10
-29.561699999999998
 20
220.14099999999999
 30
0.0
 11
-29.654
 21
220.21799999999999
 31
0.0
  0
LINE
  5
34C
  8
_________1
 62
     7
 10
-29.654
 20
220.21799999999999
 30
0.0
 11
-29.766999999999999
 21
220.26400000000001
 31
0.0
  0
LINE
  5
34D
  8
_________1
 62
     7
 10
-29.766999999999999
 20
220.26400000000001
 30
0.0
 11
-29.858000000000001
 21
220.27500000000001
 31
0.0
  0
LINE
  5
34E
  8
_________1
 62
     7
 10
-29.484500000000001
 20
219.92699999999999
 30
0.0
 11
-29.484500000000001
 21
219.917
 31
0.0
  0
LINE
  5
34F
  8
_________1
 62
     7
 10
-29.484500000000001
 20
219.917
 30
0.0
 11
-29.485900000000001
 21
219.90600000000001
 31
0.0
  0
LINE
  5
350
  8
_________1
 62
     7
 10
-29.485900000000001
 20
219.90600000000001
 30
0.0
 11
-29.488
 21
219.89599999999999
 31
0.0
  0
LINE
  5
351
  8
_________1
 62
     7
 10
-29.488
 20
219.89599999999999
 30
0.0
 11
-29.492100000000001
 21
219.887
 31
0.0
  0
LINE
  5
352
  8
_________1
 62
     7
 10
-29.492100000000001
 20
219.887
 30
0.0
 11
-29.492799999999999
 21
219.88
 31
0.0
  0
LINE
  5
353
  8
_________1
 62
     7
 10
-29.492799999999999
 20
219.88
 30
0.0
 11
-29.500699999999998
 21
219.86600000000001
 31
0.0
  0
LINE
  5
354
  8
_________1
 62
     7
 10
-29.500699999999998
 20
219.86600000000001
 30
0.0
 11
-29.5093
 21
219.852
 31
0.0
  0
LINE
  5
355
  8
_________1
 62
     7
 10
-29.5093
 20
219.852
 30
0.0
 11
-29.5197
 21
219.83699999999999
 31
0.0
  0
LINE
  5
356
  8
_________1
 62
     7
 10
-29.5197
 20
219.83699999999999
 30
0.0
 11
-29.5307
 21
219.82499999999999
 31
0.0
  0
LINE
  5
357
  8
_________1
 62
     7
 10
-29.5307
 20
219.82499999999999
 30
0.0
 11
-29.543099999999999
 21
219.81299999999999
 31
0.0
  0
LINE
  5
358
  8
_________1
 62
     7
 10
-29.543099999999999
 20
219.81299999999999
 30
0.0
 11
-29.561699999999998
 21
219.797
 31
0.0
  0
LINE
  5
359
  8
_________1
 62
     7
 10
-29.561699999999998
 20
219.797
 30
0.0
 11
-29.579899999999999
 21
219.78299999999999
 31
0.0
  0
LINE
  5
35A
  8
_________1
 62
     7
 10
-29.579899999999999
 20
219.78299999999999
 30
0.0
 11
-29.5989
 21
219.77099999999999
 31
0.0
  0
LINE
  5
35B
  8
_________1
 62
     7
 10
-29.5989
 20
219.77099999999999
 30
0.0
 11
-29.6189
 21
219.75999999999999
 31
0.0
  0
LINE
  5
35C
  8
_________1
 62
     7
 10
-29.6189
 20
219.75999999999999
 30
0.0
 11
-29.637499999999999
 21
219.749
 31
0.0
  0
LINE
  5
35D
  8
_________1
 62
     7
 10
-29.637499999999999
 20
219.749
 30
0.0
 11
-29.659199999999998
 21
219.739
 31
0.0
  0
LINE
  5
35E
  8
_________1
 62
     7
 10
-29.659199999999998
 20
219.739
 30
0.0
 11
-29.678100000000001
 21
219.72999999999999
 31
0.0
  0
LINE
  5
35F
  8
_________1
 62
     7
 10
-29.678100000000001
 20
219.72999999999999
 30
0.0
 11
-29.6981
 21
219.721
 31
0.0
  0
LINE
  5
360
  8
_________1
 62
     7
 10
-29.6981
 20
219.721
 30
0.0
 11
-29.718800000000002
 21
219.71199999999999
 31
0.0
  0
LINE
  5
361
  8
_________1
 62
     7
 10
-29.718800000000002
 20
219.71199999999999
 30
0.0
 11
-29.738399999999999
 21
219.70500000000001
 31
0.0
  0
LINE
  5
362
  8
_________1
 62
     7
 10
-29.738399999999999
 20
219.70500000000001
 30
0.0
 11
-29.780799999999999
 21
219.691
 31
0.0
  0
LINE
  5
363
  8
_________1
 62
     7
 10
-29.780799999999999
 20
219.691
 30
0.0
 11
-29.821100000000001
 21
219.679
 31
0.0
  0
LINE
  5
364
  8
_________1
 62
     7
 10
-29.821100000000001
 20
219.679
 30
0.0
 11
-29.863499999999998
 21
219.66800000000001
 31
0.0
  0
LINE
  5
365
  8
_________1
 62
     7
 10
-29.863499999999998
 20
219.66800000000001
 30
0.0
 11
-29.9055
 21
219.65799999999999
 31
0.0
  0
LINE
  5
366
  8
_________1
 62
     7
 10
-29.9055
 20
219.65799999999999
 30
0.0
 11
-29.947500000000002
 21
219.649
 31
0.0
  0
LINE
  5
367
  8
_________1
 62
     7
 10
-29.947500000000002
 20
219.649
 30
0.0
 11
-29.989899999999999
 21
219.642
 31
0.0
  0
LINE
  5
368
  8
_________1
 62
     7
 10
-29.989899999999999
 20
219.642
 30
0.0
 11
-30.0337
 21
219.63499999999999
 31
0.0
  0
LINE
  5
369
  8
_________1
 62
     7
 10
-30.0337
 20
219.63499999999999
 30
0.0
 11
-30.077100000000002
 21
219.63
 31
0.0
  0
LINE
  5
36A
  8
_________1
 62
     7
 10
-30.077100000000002
 20
219.63
 30
0.0
 11
-30.120799999999999
 21
219.625
 31
0.0
  0
LINE
  5
36B
  8
_________1
 62
     7
 10
-30.120799999999999
 20
219.625
 30
0.0
 11
-30.1632
 21
219.62100000000001
 31
0.0
  0
LINE
  5
36C
  8
_________1
 62
     7
 10
-30.1632
 20
219.62100000000001
 30
0.0
 11
-30.207000000000001
 21
219.61699999999999
 31
0.0
  0
LINE
  5
36D
  8
_________1
 62
     7
 10
-30.207000000000001
 20
219.61699999999999
 30
0.0
 11
-30.249300000000002
 21
219.61600000000001
 31
0.0
  0
LINE
  5
36E
  8
_________1
 62
     7
 10
-30.249300000000002
 20
219.61600000000001
 30
0.0
 11
-30.293099999999999
 21
219.614
 31
0.0
  0
LINE
  5
36F
  8
_________1
 62
     7
 10
-30.293099999999999
 20
219.614
 30
0.0
 11
-30.3368
 21
219.614
 31
0.0
  0
LINE
  5
370
  8
_________1
 62
     7
 10
-30.3368
 20
219.614
 30
0.0
 11
-30.379200000000001
 21
219.614
 31
0.0
  0
LINE
  5
371
  8
_________1
 62
     7
 10
-30.379200000000001
 20
219.614
 30
0.0
 11
-30.422999999999998
 21
219.614
 31
0.0
  0
LINE
  5
372
  8
_________1
 62
     7
 10
-30.422999999999998
 20
219.614
 30
0.0
 11
-30.4678
 21
219.61600000000001
 31
0.0
  0
LINE
  5
373
  8
_________1
 62
     7
 10
-30.4678
 20
219.61600000000001
 30
0.0
 11
-30.510100000000001
 21
219.61699999999999
 31
0.0
  0
LINE
  5
374
  8
_________1
 62
     7
 10
-30.510100000000001
 20
219.61699999999999
 30
0.0
 11
-30.553899999999999
 21
219.62100000000001
 31
0.0
  0
LINE
  5
375
  8
_________1
 62
     7
 10
-30.553899999999999
 20
219.62100000000001
 30
0.0
 11
-30.596299999999999
 21
219.625
 31
0.0
  0
LINE
  5
376
  8
_________1
 62
     7
 10
-30.596299999999999
 20
219.625
 30
0.0
 11
-30.640000000000001
 21
219.63
 31
0.0
  0
LINE
  5
377
  8
_________1
 62
     7
 10
-30.640000000000001
 20
219.63
 30
0.0
 11
-30.682400000000001
 21
219.63499999999999
 31
0.0
  0
LINE
  5
378
  8
_________1
 62
     7
 10
-30.682400000000001
 20
219.63499999999999
 30
0.0
 11
-30.724799999999998
 21
219.642
 31
0.0
  0
LINE
  5
379
  8
_________1
 62
     7
 10
-30.724799999999998
 20
219.642
 30
0.0
 11
-30.7685
 21
219.65100000000001
 31
0.0
  0
LINE
  5
37A
  8
_________1
 62
     7
 10
-30.7685
 20
219.65100000000001
 30
0.0
 11
-30.8109
 21
219.65799999999999
 31
0.0
  0
LINE
  5
37B
  8
_________1
 62
     7
 10
-30.8109
 20
219.65799999999999
 30
0.0
 11
-30.852900000000002
 21
219.66800000000001
 31
0.0
  0
LINE
  5
37C
  8
_________1
 62
     7
 10
-30.852900000000002
 20
219.66800000000001
 30
0.0
 11
-30.894300000000001
 21
219.679
 31
0.0
  0
LINE
  5
37D
  8
_________1
 62
     7
 10
-30.894300000000001
 20
219.679
 30
0.0
 11
-30.936299999999999
 21
219.691
 31
0.0
  0
LINE
  5
37E
  8
_________1
 62
     7
 10
-30.936299999999999
 20
219.691
 30
0.0
 11
-30.976900000000001
 21
219.70500000000001
 31
0.0
  0
LINE
  5
37F
  8
_________1
 62
     7
 10
-30.976900000000001
 20
219.70500000000001
 30
0.0
 11
-30.997599999999998
 21
219.714
 31
0.0
  0
LINE
  5
380
  8
_________1
 62
     7
 10
-30.997599999999998
 20
219.714
 30
0.0
 11
-31.017600000000002
 21
219.721
 31
0.0
  0
LINE
  5
381
  8
_________1
 62
     7
 10
-31.017600000000002
 20
219.721
 30
0.0
 11
-31.0383
 21
219.72999999999999
 31
0.0
  0
LINE
  5
382
  8
_________1
 62
     7
 10
-31.0383
 20
219.72999999999999
 30
0.0
 11
-31.0579
 21
219.739
 31
0.0
  0
LINE
  5
383
  8
_________1
 62
     7
 10
-31.0579
 20
219.739
 30
0.0
 11
-31.076899999999998
 21
219.749
 31
0.0
  0
LINE
  5
384
  8
_________1
 62
     7
 10
-31.076899999999998
 20
219.749
 30
0.0
 11
-31.096800000000002
 21
219.75999999999999
 31
0.0
  0
LINE
  5
385
  8
_________1
 62
     7
 10
-31.096800000000002
 20
219.75999999999999
 30
0.0
 11
-31.115400000000001
 21
219.77099999999999
 31
0.0
  0
LINE
  5
386
  8
_________1
 62
     7
 10
-31.115400000000001
 20
219.77099999999999
 30
0.0
 11
-31.135400000000001
 21
219.78299999999999
 31
0.0
  0
LINE
  5
387
  8
_________1
 62
     7
 10
-31.135400000000001
 20
219.78299999999999
 30
0.0
 11
-31.1526
 21
219.797
 31
0.0
  0
LINE
  5
388
  8
_________1
 62
     7
 10
-31.1526
 20
219.797
 30
0.0
 11
-31.172599999999999
 21
219.81299999999999
 31
0.0
  0
LINE
  5
389
  8
_________1
 62
     7
 10
-31.172599999999999
 20
219.81299999999999
 30
0.0
 11
-31.1843
 21
219.82499999999999
 31
0.0
  0
LINE
  5
38A
  8
_________1
 62
     7
 10
-31.1843
 20
219.82499999999999
 30
0.0
 11
-31.194700000000001
 21
219.83699999999999
 31
0.0
  0
LINE
  5
38B
  8
_________1
 62
     7
 10
-31.194700000000001
 20
219.83699999999999
 30
0.0
 11
-31.206
 21
219.852
 31
0.0
  0
LINE
  5
38C
  8
_________1
 62
     7
 10
-31.206
 20
219.852
 30
0.0
 11
-31.214700000000001
 21
219.86600000000001
 31
0.0
  0
LINE
  5
38D
  8
_________1
 62
     7
 10
-31.214700000000001
 20
219.86600000000001
 30
0.0
 11
-31.221499999999999
 21
219.88
 31
0.0
  0
LINE
  5
38E
  8
_________1
 62
     7
 10
-31.221499999999999
 20
219.88
 30
0.0
 11
-31.225000000000001
 21
219.887
 31
0.0
  0
LINE
  5
38F
  8
_________1
 62
     7
 10
-31.225000000000001
 20
219.887
 30
0.0
 11
-31.226700000000001
 21
219.89599999999999
 31
0.0
  0
LINE
  5
390
  8
_________1
 62
     7
 10
-31.226700000000001
 20
219.89599999999999
 30
0.0
 11
-31.228400000000001
 21
219.90600000000001
 31
0.0
  0
LINE
  5
391
  8
_________1
 62
     7
 10
-31.228400000000001
 20
219.90600000000001
 30
0.0
 11
-31.2302
 21
219.917
 31
0.0
  0
LINE
  5
392
  8
_________1
 62
     7
 10
-31.2302
 20
219.917
 30
0.0
 11
-31.2319
 21
219.92699999999999
 31
0.0
  0
LINE
  5
393
  8
_________1
 62
     7
 10
-30.857099999999999
 20
220.27500000000001
 30
0.0
 11
-30.9787
 21
220.255
 31
0.0
  0
LINE
  5
394
  8
_________1
 62
     7
 10
-30.9787
 20
220.255
 30
0.0
 11
-31.087900000000001
 21
220.19999999999999
 31
0.0
  0
LINE
  5
395
  8
_________1
 62
     7
 10
-31.087900000000001
 20
220.19999999999999
 30
0.0
 11
-31.1706
 21
220.11699999999999
 31
0.0
  0
LINE
  5
396
  8
_________1
 62
     7
 10
-31.1706
 20
220.11699999999999
 30
0.0
 11
-31.219799999999999
 21
220.012
 31
0.0
  0
LINE
  5
397
  8
_________1
 62
     7
 10
-31.219799999999999
 20
220.012
 30
0.0
 11
-31.2319
 21
219.92699999999999
 31
0.0
  0
ARC
  5
398
  8
_________1
 62
     7
 10
-30.850047
 20
220.48125899999999
 30
0.0
 40
0.38355
 50
91.046811000000005
 51
174.581558
  0
ARC
  5
399
  8
_________1
 62
     7
 10
-33.873961999999999
 20
215.72654299999999
 30
0.0
 40
1.027795999999999
 50
211.67499699999999
 51
227.05953600000001
  0
ARC
  5
39A
  8
_________1
 62
     7
 10
-33.468435999999997
 20
216.13429500000001
 30
0.0
 40
1.6026689999999999
 50
226.37688600000001
 51
237.535157
  0
ARC
  5
39B
  8
_________1
 62
     7
 10
-32.954332000000001
 20
216.89635699999999
 30
0.0
 40
2.5217200000000002
 50
236.973974
 51
245.0065680000001
  0
ARC
  5
39C
  8
_________1
 62
     7
 10
-32.348354999999998
 20
218.13675900000001
 30
0.0
 40
3.902080999999999
 50
244.63737800000001
 51
251.461939
  0
ARC
  5
39D
  8
_________1
 62
     7
 10
-31.517571000000011
 20
220.52966000000001
 30
0.0
 40
6.4350120000000004
 50
251.22251199999999
 51
259.35362900000001
  0
ARC
  5
39E
  8
_________1
 62
     7
 10
-30.638735
 20
224.69613699999999
 30
0.0
 40
10.692543000000001
 50
258.850123
 51
266.26052600000003
  0
ARC
  5
39F
  8
_________1
 62
     7
 10
-30.33569
 20
227.853185
 30
0.0
 40
13.862969
 50
265.861695
 51
278.48657100000003
  0
ARC
  5
3A0
  8
_________1
 62
     7
 10
-29.603908000000001
 20
222.33031
 30
0.0
 40
8.2930749999999982
 50
279.11724600000002
 51
285.65575100000001
  0
ARC
  5
3A1
  8
_________1
 62
     7
 10
-28.654907999999999
 20
218.84145599999999
 30
0.0
 40
4.677643999999999
 50
285.995025
 51
295.10123499999997
  0
ARC
  5
3A2
  8
_________1
 62
     7
 10
-27.694742999999999
 20
216.72885299999999
 30
0.0
 40
2.3573869999999988
 50
295.750631
 51
308.03751699999998
  0
ARC
  5
3A3
  8
_________1
 62
     7
 10
-26.990772
 20
215.80423099999999
 30
0.0
 40
1.195473999999999
 50
308.76980300000002
 51
328.90666599999997
  0
ARC
  5
3A4
  8
_________1
 62
     7
 10
-34.490062000000002
 20
215.51303899999999
 30
0.0
 40
0.680279
 50
182.57816500000001
 51
216.154268
  0
ARC
  5
3A5
  8
_________1
 62
     7
 10
-34.120154999999997
 20
215.75417100000001
 30
0.0
 40
1.1214589999999991
 50
214.95186699999999
 51
233.10670400000001
  0
ARC
  5
3A6
  8
_________1
 62
     7
 10
-33.543360999999997
 20
216.45029700000001
 30
0.0
 40
2.0249189999999988
 50
231.87887499999999
 51
241.41302300000001
  0
ARC
  5
3A7
  8
_________1
 62
     7
 10
-32.857690999999988
 20
217.65704099999999
 30
0.0
 40
3.4127279999999991
 50
240.99894699999999
 51
248.55121
  0
ARC
  5
3A8
  8
_________1
 62
     7
 10
-32.032772000000001
 20
219.66400899999999
 30
0.0
 40
5.5824530000000001
 50
248.20325800000001
 51
253.61241999999999
  0
ARC
  5
3A9
  8
_________1
 62
     7
 10
-31.140885999999998
 20
222.59351899999999
 30
0.0
 40
8.6446320000000014
 50
253.419284
 51
258.126439
  0
ARC
  5
3AA
  8
_________1
 62
     7
 10
-30.325500999999999
 20
226.292959
 30
0.0
 40
12.432741
 50
257.95699100000002
 51
265.370227
  0
ARC
  5
3AB
  8
_________1
 62
     7
 10
-30.358719000000001
 20
227.506924
 30
0.0
 40
13.640694
 50
265.92089300000009
 51
276.28931299999999
  0
ARC
  5
3AC
  8
_________1
 62
     7
 10
-30.081354000000001
 20
224.899057
 30
0.0
 40
11.018141999999999
 50
276.34127599999999
 51
283.57473199999998
  0
ARC
  5
3AD
  8
_________1
 62
     7
 10
-29.055398
 20
220.44115400000001
 30
0.0
 40
6.444153
 50
284.01070299999998
 51
291.77552500000002
  0
ARC
  5
3AE
  8
_________1
 62
     7
 10
-28.046174000000001
 20
217.830569
 30
0.0
 40
3.6455889999999989
 50
292.26652899999999
 51
302.57915400000002
  0
ARC
  5
3AF
  8
_________1
 62
     7
 10
-27.106677999999999
 20
216.31018
 30
0.0
 40
1.8587469999999999
 50
303.41177099999999
 51
316.461319
  0
ARC
  5
3B0
  8
_________1
 62
     7
 10
-26.517669999999999
 20
215.73174499999999
 30
0.0
 40
1.0334069999999991
 50
317.21416399999998
 51
330.61373600000002
  0
ARC
  5
3B1
  8
_________1
 62
     7
 10
-26.124831
 20
215.50428500000001
 30
0.0
 40
0.579526
 50
331.15047199999998
 51
357.83957199999998
  0
LINE
  5
3B2
  8
_________1
 62
     7
 10
58.731200000000001
 20
184.18700000000001
 30
0.0
 11
58.731200000000001
 21
183.18700000000001
 31
0.0
  0
LINE
  5
3B3
  8
_________1
 62
     7
 10
61.106200000000001
 20
184.18700000000001
 30
0.0
 11
61.106200000000001
 21
183.18700000000001
 31
0.0
  0
LINE
  5
3B4
  8
_________1
 62
     7
 10
58.731200000000001
 20
183.18700000000001
 30
0.0
 11
61.106200000000001
 21
183.18700000000001
 31
0.0
  0
LINE
  5
3B5
  8
_________1
 62
     7
 10
58.731200000000001
 20
184.18700000000001
 30
0.0
 11
61.106200000000001
 21
184.18700000000001
 31
0.0
  0
LINE
  5
3B6
  8
_________1
 62
     7
 10
60.668700000000001
 20
184.18700000000001
 30
0.0
 11
60.668700000000001
 21
185.43700000000001
 31
0.0
  0
LINE
  5
3B7
  8
_________1
 62
     7
 10
59.168700000000001
 20
184.18700000000001
 30
0.0
 11
59.168700000000001
 21
185.43700000000001
 31
0.0
  0
LINE
  5
3B8
  8
_________1
 62
     7
 10
60.668700000000001
 20
187.43700000000001
 30
0.0
 11
60.668700000000001
 21
189.18700000000001
 31
0.0
  0
LINE
  5
3B9
  8
_________1
 62
     7
 10
59.168700000000001
 20
187.43700000000001
 30
0.0
 11
59.168700000000001
 21
189.18700000000001
 31
0.0
  0
LINE
  5
3BA
  8
_________1
 62
     7
 10
62.2941
 20
187.43700000000001
 30
0.0
 11
62.2941
 21
189.18700000000001
 31
0.0
  0
LINE
  5
3BB
  8
_________1
 62
     7
 10
62.2941
 20
189.93700000000001
 30
0.0
 11
62.2941
 21
194.93700000000001
 31
0.0
  0
LINE
  5
3BC
  8
_________1
 62
     7
 10
57.543599999999998
 20
187.43700000000001
 30
0.0
 11
57.543599999999998
 21
189.18700000000001
 31
0.0
  0
LINE
  5
3BD
  8
_________1
 62
     7
 10
57.543599999999998
 20
189.93700000000001
 30
0.0
 11
57.543599999999998
 21
194.93700000000001
 31
0.0
  0
LINE
  5
3BE
  8
_________1
 62
     7
 10
62.2941
 20
182.43700000000001
 30
0.0
 11
62.543900000000001
 21
182.68600000000001
 31
0.0
  0
LINE
  5
3BF
  8
_________1
 62
     7
 10
62.2941
 20
182.43700000000001
 30
0.0
 11
62.2941
 21
185.43700000000001
 31
0.0
  0
LINE
  5
3C0
  8
_________1
 62
     7
 10
62.543900000000001
 20
187.43700000000001
 30
0.0
 11
62.543900000000001
 21
189.18700000000001
 31
0.0
  0
LINE
  5
3C1
  8
_________1
 62
     7
 10
62.543900000000001
 20
182.68600000000001
 30
0.0
 11
62.543900000000001
 21
185.43700000000001
 31
0.0
  0
LINE
  5
3C2
  8
_________1
 62
     7
 10
57.543599999999998
 20
182.43700000000001
 30
0.0
 11
57.293900000000001
 21
182.68600000000001
 31
0.0
  0
LINE
  5
3C3
  8
_________1
 62
     7
 10
57.293900000000001
 20
182.68600000000001
 30
0.0
 11
62.543900000000001
 21
182.68600000000001
 31
0.0
  0
LINE
  5
3C4
  8
_________1
 62
     7
 10
57.543599999999998
 20
182.43700000000001
 30
0.0
 11
57.543599999999998
 21
185.43700000000001
 31
0.0
  0
LINE
  5
3C5
  8
_________1
 62
     7
 10
57.293900000000001
 20
187.43700000000001
 30
0.0
 11
57.293900000000001
 21
189.18700000000001
 31
0.0
  0
LINE
  5
3C6
  8
_________1
 62
     7
 10
57.293900000000001
 20
182.68600000000001
 30
0.0
 11
57.293900000000001
 21
185.43700000000001
 31
0.0
  0
LINE
  5
3C7
  8
_________1
 62
     7
 10
57.543599999999998
 20
182.43700000000001
 30
0.0
 11
62.2941
 21
182.43700000000001
 31
0.0
  0
LINE
  5
3C8
  8
_________1
 62
     7
 10
63.418900000000001
 20
185.93700000000001
 30
0.0
 11
63.418900000000001
 21
186.93700000000001
 31
0.0
  0
LINE
  5
3C9
  8
_________1
 62
     7
 10
56.918700000000001
 20
185.43700000000001
 30
0.0
 11
62.918999999999997
 21
185.43700000000001
 31
0.0
  0
ARC
  5
3CA
  8
_________1
 62
     7
 10
62.899673999999997
 20
185.955761
 30
0.0
 40
0.5195850000000001
 50
272.13577099999998
 51
357.94315799999998
  0
LINE
  5
3CB
  8
_________1
 62
     7
 10
56.918700000000001
 20
187.43700000000001
 30
0.0
 11
62.918999999999997
 21
187.43700000000001
 31
0.0
  0
ARC
  5
3CC
  8
_________1
 62
     7
 10
62.899723000000002
 20
186.91757100000001
 30
0.0
 40
0.5195610000000001
 50
2.130487
 51
87.869502999999995
  0
LINE
  5
3CD
  8
_________1
 62
     7
 10
56.418799999999997
 20
185.93700000000001
 30
0.0
 11
56.418799999999997
 21
186.93700000000001
 31
0.0
  0
ARC
  5
3CE
  8
_________1
 62
     7
 10
56.938670000000002
 20
185.956389
 30
0.0
 40
0.5202359999999999
 50
182.12350499999999
 51
267.79760499999998
  0
ARC
  5
3CF
  8
_________1
 62
     7
 10
56.937992000000001
 20
186.91757100000001
 30
0.0
 40
0.5195610000000001
 50
92.130477999999997
 51
177.86949300000001
  0
LINE
  5
3D0
  8
_________1
 62
     7
 10
65.544200000000004
 20
189.93700000000001
 30
0.0
 11
65.544200000000004
 21
189.18700000000001
 31
0.0
  0
LINE
  5
3D1
  8
_________1
 62
     7
 10
54.293500000000002
 20
189.93700000000001
 30
0.0
 11
54.293500000000002
 21
189.18700000000001
 31
0.0
  0
LINE
  5
3D2
  8
_________1
 62
     7
 10
54.293500000000002
 20
189.18700000000001
 30
0.0
 11
65.544200000000004
 21
189.18700000000001
 31
0.0
  0
LINE
  5
3D3
  8
_________1
 62
     7
 10
54.293500000000002
 20
189.68700000000001
 30
0.0
 11
65.544200000000004
 21
189.68700000000001
 31
0.0
  0
LINE
  5
3D4
  8
_________1
 62
     7
 10
62.543900000000001
 20
189.93700000000001
 30
0.0
 11
62.543900000000001
 21
194.93700000000001
 31
0.0
  0
LINE
  5
3D5
  8
_________1
 62
     7
 10
57.293900000000001
 20
189.93700000000001
 30
0.0
 11
57.293900000000001
 21
194.93700000000001
 31
0.0
  0
LINE
  5
3D6
  8
_________1
 62
     7
 10
54.293500000000002
 20
189.93700000000001
 30
0.0
 11
65.544200000000004
 21
189.93700000000001
 31
0.0
  0
LINE
  5
3D7
  8
_________1
 62
     7
 10
-25.431999999999999
 20
183.68599999999989
 30
0.0
 11
-25.8065
 21
183.68599999999989
 31
0.0
  0
LINE
  5
3D8
  8
_________1
 62
     7
 10
-25.8065
 20
183.68599999999989
 30
0.0
 11
-25.8065
 21
183.18700000000001
 31
0.0
  0
LINE
  5
3D9
  8
_________1
 62
     7
 10
-25.431999999999999
 20
183.68599999999989
 30
0.0
 11
-25.431999999999999
 21
183.18700000000001
 31
0.0
  0
LINE
  5
3DA
  8
_________1
 62
     7
 10
-24.431899999999999
 20
184.18700000000001
 30
0.0
 11
-24.431899999999999
 21
183.18700000000001
 31
0.0
  0
LINE
  5
3DB
  8
_________1
 62
     7
 10
-26.807700000000001
 20
184.18700000000001
 30
0.0
 11
-26.807700000000001
 21
183.18700000000001
 31
0.0
  0
LINE
  5
3DC
  8
_________1
 62
     7
 10
-25.8065
 20
183.18700000000001
 30
0.0
 11
-26.807700000000001
 21
183.18700000000001
 31
0.0
  0
LINE
  5
3DD
  8
_________1
 62
     7
 10
-24.431899999999999
 20
183.18700000000001
 30
0.0
 11
-25.431999999999999
 21
183.18700000000001
 31
0.0
  0
LINE
  5
3DE
  8
_________1
 62
     7
 10
-24.431899999999999
 20
184.18700000000001
 30
0.0
 11
-26.807700000000001
 21
184.18700000000001
 31
0.0
  0
LINE
  5
3DF
  8
_________1
 62
     7
 10
-26.370100000000001
 20
184.18700000000001
 30
0.0
 11
-26.370100000000001
 21
185.43700000000001
 31
0.0
  0
LINE
  5
3E0
  8
_________1
 62
     7
 10
-24.869399999999999
 20
184.18700000000001
 30
0.0
 11
-24.869399999999999
 21
185.43700000000001
 31
0.0
  0
LINE
  5
3E1
  8
_________1
 62
     7
 10
-26.370100000000001
 20
187.43700000000001
 30
0.0
 11
-26.370100000000001
 21
189.18700000000001
 31
0.0
  0
LINE
  5
3E2
  8
_________1
 62
     7
 10
-24.869399999999999
 20
187.43700000000001
 30
0.0
 11
-24.869399999999999
 21
189.18700000000001
 31
0.0
  0
LINE
  5
3E3
  8
_________1
 62
     7
 10
-35.307499999999997
 20
183.68599999999989
 30
0.0
 11
-34.931899999999999
 21
183.68599999999989
 31
0.0
  0
LINE
  5
3E4
  8
_________1
 62
     7
 10
-34.931899999999999
 20
183.68599999999989
 30
0.0
 11
-34.931899999999999
 21
183.18700000000001
 31
0.0
  0
LINE
  5
3E5
  8
_________1
 62
     7
 10
-35.307499999999997
 20
183.68599999999989
 30
0.0
 11
-35.307499999999997
 21
183.18700000000001
 31
0.0
  0
LINE
  5
3E6
  8
_________1
 62
     7
 10
-36.307200000000002
 20
184.18700000000001
 30
0.0
 11
-36.307200000000002
 21
183.18700000000001
 31
0.0
  0
LINE
  5
3E7
  8
_________1
 62
     7
 10
-33.932200000000002
 20
184.18700000000001
 30
0.0
 11
-33.932200000000002
 21
183.18700000000001
 31
0.0
  0
LINE
  5
3E8
  8
_________1
 62
     7
 10
-34.931899999999999
 20
183.18700000000001
 30
0.0
 11
-33.932200000000002
 21
183.18700000000001
 31
0.0
  0
LINE
  5
3E9
  8
_________1
 62
     7
 10
-36.307200000000002
 20
183.18700000000001
 30
0.0
 11
-35.307499999999997
 21
183.18700000000001
 31
0.0
  0
LINE
  5
3EA
  8
_________1
 62
     7
 10
-36.307200000000002
 20
184.18700000000001
 30
0.0
 11
-33.932200000000002
 21
184.18700000000001
 31
0.0
  0
LINE
  5
3EB
  8
_________1
 62
     7
 10
-34.369700000000002
 20
184.18700000000001
 30
0.0
 11
-34.369700000000002
 21
185.43700000000001
 31
0.0
  0
LINE
  5
3EC
  8
_________1
 62
     7
 10
-35.869700000000002
 20
184.18700000000001
 30
0.0
 11
-35.869700000000002
 21
185.43700000000001
 31
0.0
  0
LINE
  5
3ED
  8
_________1
 62
     7
 10
-34.369700000000002
 20
187.43700000000001
 30
0.0
 11
-34.369700000000002
 21
189.18700000000001
 31
0.0
  0
LINE
  5
3EE
  8
_________1
 62
     7
 10
-35.869700000000002
 20
187.43700000000001
 30
0.0
 11
-35.869700000000002
 21
189.18700000000001
 31
0.0
  0
LINE
  5
3EF
  8
_________1
 62
     7
 10
-27.994199999999999
 20
187.43700000000001
 30
0.0
 11
-27.994199999999999
 21
189.18700000000001
 31
0.0
  0
LINE
  5
3F0
  8
_________1
 62
     7
 10
-27.994199999999999
 20
189.93700000000001
 30
0.0
 11
-27.994199999999999
 21
194.93700000000001
 31
0.0
  0
LINE
  5
3F1
  8
_________1
 62
     7
 10
-32.74430000000001
 20
187.43700000000001
 30
0.0
 11
-32.74430000000001
 21
189.18700000000001
 31
0.0
  0
LINE
  5
3F2
  8
_________1
 62
     7
 10
-32.74430000000001
 20
189.93700000000001
 30
0.0
 11
-32.74430000000001
 21
194.93700000000001
 31
0.0
  0
LINE
  5
3F3
  8
_________1
 62
     7
 10
-27.994199999999999
 20
182.43700000000001
 30
0.0
 11
-27.744700000000002
 21
182.68600000000001
 31
0.0
  0
LINE
  5
3F4
  8
_________1
 62
     7
 10
-27.994199999999999
 20
182.43700000000001
 30
0.0
 11
-27.994199999999999
 21
185.43700000000001
 31
0.0
  0
LINE
  5
3F5
  8
_________1
 62
     7
 10
-27.744700000000002
 20
187.43700000000001
 30
0.0
 11
-27.744700000000002
 21
189.18700000000001
 31
0.0
  0
LINE
  5
3F6
  8
_________1
 62
     7
 10
-27.744700000000002
 20
182.68600000000001
 30
0.0
 11
-27.744700000000002
 21
185.43700000000001
 31
0.0
  0
LINE
  5
3F7
  8
_________1
 62
     7
 10
-32.74430000000001
 20
182.43700000000001
 30
0.0
 11
-32.995100000000001
 21
182.68600000000001
 31
0.0
  0
LINE
  5
3F8
  8
_________1
 62
     7
 10
-32.995100000000001
 20
182.68600000000001
 30
0.0
 11
-27.744700000000002
 21
182.68600000000001
 31
0.0
  0
LINE
  5
3F9
  8
_________1
 62
     7
 10
-32.74430000000001
 20
182.43700000000001
 30
0.0
 11
-32.74430000000001
 21
185.43700000000001
 31
0.0
  0
LINE
  5
3FA
  8
_________1
 62
     7
 10
-32.995100000000001
 20
187.43700000000001
 30
0.0
 11
-32.995100000000001
 21
189.18700000000001
 31
0.0
  0
LINE
  5
3FB
  8
_________1
 62
     7
 10
-32.995100000000001
 20
182.68600000000001
 30
0.0
 11
-32.995100000000001
 21
185.43700000000001
 31
0.0
  0
LINE
  5
3FC
  8
_________1
 62
     7
 10
-32.74430000000001
 20
182.43700000000001
 30
0.0
 11
-27.994199999999999
 21
182.43700000000001
 31
0.0
  0
LINE
  5
3FD
  8
_________1
 62
     7
 10
-24.119399999999999
 20
185.93700000000001
 30
0.0
 11
-24.119399999999999
 21
186.93700000000001
 31
0.0
  0
LINE
  5
3FE
  8
_________1
 62
     7
 10
-36.119799999999998
 20
185.43700000000001
 30
0.0
 11
-24.620000000000001
 21
185.43700000000001
 31
0.0
  0
ARC
  5
3FF
  8
_________1
 62
     7
 10
-24.639348999999999
 20
185.95644799999999
 30
0.0
 40
0.52027
 50
272.12984999999998
 51
357.87016
  0
LINE
  5
400
  8
_________1
 62
     7
 10
-36.119799999999998
 20
187.43700000000001
 30
0.0
 11
-24.620000000000001
 21
187.43700000000001
 31
0.0
  0
ARC
  5
401
  8
_________1
 62
     7
 10
-24.638662
 20
186.91752199999999
 30
0.0
 40
0.5195850000000001
 50
2.135761
 51
87.943147999999994
  0
LINE
  5
402
  8
_________1
 62
     7
 10
-36.619999999999997
 20
185.93700000000001
 30
0.0
 11
-36.619999999999997
 21
186.93700000000001
 31
0.0
  0
ARC
  5
403
  8
_________1
 62
     7
 10
-36.100548000000003
 20
185.95602199999999
 30
0.0
 40
0.5198420000000001
 50
182.08462399999999
 51
267.87596000000002
  0
ARC
  5
404
  8
_________1
 62
     7
 10
-36.100514000000011
 20
186.917227
 30
0.0
 40
0.519904
 50
92.127519000000007
 51
177.832978
  0
LINE
  5
405
  8
_________1
 62
     7
 10
-24.744700000000002
 20
189.93700000000001
 30
0.0
 11
-24.744700000000002
 21
189.18700000000001
 31
0.0
  0
LINE
  5
406
  8
_________1
 62
     7
 10
-35.994799999999998
 20
189.93700000000001
 30
0.0
 11
-35.994799999999998
 21
189.18700000000001
 31
0.0
  0
LINE
  5
407
  8
_________1
 62
     7
 10
-35.994799999999998
 20
189.18700000000001
 30
0.0
 11
-24.744700000000002
 21
189.18700000000001
 31
0.0
  0
LINE
  5
408
  8
_________1
 62
     7
 10
-35.994799999999998
 20
189.68700000000001
 30
0.0
 11
-24.744700000000002
 21
189.68700000000001
 31
0.0
  0
LINE
  5
409
  8
_________1
 62
     7
 10
-27.744700000000002
 20
189.93700000000001
 30
0.0
 11
-27.744700000000002
 21
194.93700000000001
 31
0.0
  0
LINE
  5
40A
  8
_________1
 62
     7
 10
-32.995100000000001
 20
189.93700000000001
 30
0.0
 11
-32.995100000000001
 21
194.93700000000001
 31
0.0
  0
LINE
  5
40B
  8
_________1
 62
     7
 10
-35.994799999999998
 20
189.93700000000001
 30
0.0
 11
-24.744700000000002
 21
189.93700000000001
 31
0.0
  0
LINE
  5
40C
  8
_________1
  6
AIGENLINE001
 62
     7
 10
-30.369900000000001
 20
271.803
 30
0.0
 11
-30.369900000000001
 21
238.28899999999999
 31
0.0
  0
LINE
  5
40D
  8
_________1
  6
AIGENLINE001
 62
     7
 10
-38.263399999999997
 20
264.03500000000003
 30
0.0
 11
-22.488900000000001
 21
264.03500000000003
 31
0.0
  0
ARC
  5
40E
  8
_________1
 62
     7
 10
-30.867560999999998
 20
243.77216899999999
 30
0.0
 40
3.0463459999999989
 50
179.98660799999999
 51
233.09365700000001
  0
ARC
  5
40F
  8
_________1
 62
     7
 10
-30.341856
 20
244.524959
 30
0.0
 40
3.9641069999999989
 50
233.5517540000001
 51
295.26797699999992
  0
ARC
  5
410
  8
_________1
 62
     7
 10
-30.302482000000001
 20
244.17389299999999
 30
0.0
 40
3.6316209999999991
 50
297.07072699999998
 51
331.32372400000003
  0
ARC
  5
411
  8
_________1
 62
     7
 10
-29.606280000000002
 20
243.730501
 30
0.0
 40
2.8085830000000001
 50
332.44435800000002
 51
0.8645859999999999
  0
LINE
  5
412
  8
_________1
 62
     7
 10
-33.913899999999998
 20
250.27500000000001
 30
0.0
 11
-33.913899999999998
 21
243.773
 31
0.0
  0
ARC
  5
413
  8
_________1
 62
     7
 10
-30.366975
 20
243.78030699999999
 30
0.0
 40
3.5469400000000002
 50
180.119992
 51
235.11291700000001
  0
ARC
  5
414
  8
_________1
 62
     7
 10
-30.286771000000002
 20
243.875484
 30
0.0
 40
3.670901999999999
 50
234.93572
 51
273.58634699999999
  0
ARC
  5
415
  8
_________1
 62
     7
 10
-30.328406999999999
 20
243.55474000000001
 30
0.0
 40
3.3539579999999991
 50
274.63903099999999
 51
300.03277000000003
  0
ARC
  5
416
  8
_________1
 62
     7
 10
-30.564415
 20
243.960612
 30
0.0
 40
3.823458
 50
300.050522
 51
340.49270999999999
  0
ARC
  5
417
  8
_________1
 62
     7
 10
-30.019881999999999
 20
243.69674800000001
 30
0.0
 40
3.2227639999999989
 50
341.681893
 51
1.353642999999999
  0
LINE
  5
418
  8
_________1
 62
     7
 10
-26.797999999999998
 20
243.773
 30
0.0
 11
-26.797999999999998
 21
250.27500000000001
 31
0.0
  0
LINE
  5
419
  8
_________1
 62
     7
 10
-25.1754
 20
253.83199999999999
 30
0.0
 11
-25.1754
 21
256.20600000000002
 31
0.0
  0
ARC
  5
41A
  8
_________1
 62
     7
 10
-29.112178000000011
 20
256.29457500000001
 30
0.0
 40
3.9377970000000002
 50
358.71810099999999
 51
15.108848
  0
ARC
  5
41B
  8
_________1
 62
     7
 10
-29.987666000000001
 20
256.11608200000001
 30
0.0
 40
4.8298690000000004
 50
14.445988
 51
32.828876999999999
  0
ARC
  5
41C
  8
_________1
 62
     7
 10
-30.187104000000001
 20
255.94628599999999
 30
0.0
 40
5.089624999999999
 50
33.217897999999998
 51
76.217416999999998
  0
ARC
  5
41D
  8
_________1
 62
     7
 10
-30.347353999999999
 20
255.35437999999999
 30
0.0
 40
5.7026839999999988
 50
76.070513000000005
 51
119.511189
  0
ARC
  5
41E
  8
_________1
 62
     7
 10
-30.670905000000001
 20
256.117884
 30
0.0
 40
4.8797739999999994
 50
120.621106
 51
163.249717
  0
ARC
  5
41F
  8
_________1
 62
     7
 10
-31.495290000000001
 20
256.379052
 30
0.0
 40
4.0151180000000002
 50
163.42807099999999
 51
172.81912700000001
  0
ARC
  5
420
  8
_________1
 62
     7
 10
-29.198647999999999
 20
256.04582299999998
 30
0.0
 40
6.3355509999999997
 50
172.42544899999999
 51
175.030135
  0
ARC
  5
421
  8
_________1
 62
     7
 10
-23.273194
 20
255.54185699999999
 30
0.0
 40
12.282392
 50
175.08265700000001
 51
176.89807999999999
  0
LINE
  5
422
  8
_________1
 62
     7
 10
-35.537599999999998
 20
256.20600000000002
 30
0.0
 11
-35.537599999999998
 21
253.83199999999999
 31
0.0
  0
ARC
  5
423
  8
_________1
 62
     7
 10
-30.800889999999999
 20
253.853397
 30
0.0
 40
4.7367499999999989
 50
180.261731
 51
223.51186100000001
  0
ARC
  5
424
  8
_________1
 62
     7
 10
-30.531303999999999
 20
254.05364499999999
 30
0.0
 40
5.0702949999999989
 50
223.055488
 51
240.89564100000001
  0
ARC
  5
425
  8
_________1
 62
     7
 10
-31.153348999999999
 20
252.930195
 30
0.0
 40
3.7861339999999988
 50
240.851068
 51
243.42328499999999
  0
ARC
  5
426
  8
_________1
 62
     7
 10
-29.522227000000001
 20
256.19770899999997
 30
0.0
 40
7.438146999999999
 50
243.44717
 51
245.73493300000001
  0
ARC
  5
427
  8
_________1
 62
     7
 10
-34.918690000000012
 20
243.79307900000001
 30
0.0
 40
6.09091
 50
61.575843000000013
 51
67.410359999999997
  0
ARC
  5
428
  8
_________1
 62
     7
 10
-33.106732000000001
 20
247.132735
 30
0.0
 40
2.2913770000000002
 50
52.862556999999988
 51
61.672453000000012
  0
ARC
  5
429
  8
_________1
 62
     7
 10
-32.498069000000001
 20
247.95980700000001
 30
0.0
 40
1.264654999999999
 50
5.2551389999999989
 51
52.223371999999991
  0
ARC
  5
42A
  8
_________1
 62
     7
 10
-33.062975999999999
 20
247.89857000000001
 30
0.0
 40
1.8328189999999991
 50
359.88724200000001
 51
5.5439679999999996
  0
LINE
  5
42B
  8
_________1
 62
     7
 10
-31.2302
 20
247.89500000000001
 30
0.0
 11
-31.2302
 21
246.41
 31
0.0
  0
LINE
  5
42C
  8
_________1
 62
     7
 10
-31.2302
 20
246.41
 30
0.0
 11
-29.482500000000002
 21
246.41
 31
0.0
  0
LINE
  5
42D
  8
_________1
 62
     7
 10
-29.482500000000002
 20
246.41
 30
0.0
 11
-29.482500000000002
 21
247.89500000000001
 31
0.0
  0
ARC
  5
42E
  8
_________1
 62
     7
 10
-27.776009999999999
 20
247.896871
 30
0.0
 40
1.706442999999999
 50
166.01511099999999
 51
180.06408999999999
  0
ARC
  5
42F
  8
_________1
 62
     7
 10
-28.284475
 20
248.000066
 30
0.0
 40
1.1883280000000001
 50
129.18296599999999
 51
164.91849300000001
  0
ARC
  5
430
  8
_________1
 62
     7
 10
-27.851019000000001
 20
247.501159
 30
0.0
 40
1.8490209999999989
 50
120.048185
 51
129.82680400000001
  0
ARC
  5
431
  8
_________1
 62
     7
 10
-27.144977999999998
 20
246.333607
 30
0.0
 40
3.213303999999999
 50
116.890778
 51
120.521164
  0
ARC
  5
432
  8
_________1
 62
     7
 10
-25.622911999999999
 20
243.312488
 30
0.0
 40
6.5961729999999994
 50
114.27009099999999
 51
116.813118
  0
ARC
  5
433
  8
_________1
 62
     7
 10
-30.665088000000001
 20
254.97929099999999
 30
0.0
 40
6.1152600000000001
 50
292.40556500000002
 51
299.22599400000001
  0
ARC
  5
434
  8
_________1
 62
     7
 10
-30.235523000000001
 20
254.077867
 30
0.0
 40
5.1192659999999997
 50
299.956231
 51
342.36818799999998
  0
ARC
  5
435
  8
_________1
 62
     7
 10
-29.529740000000011
 20
253.77232699999999
 30
0.0
 40
4.3547789999999988
 50
343.38666699999999
 51
0.7820000000000003
  0
LINE
  5
436
  8
_________1
 62
     7
 10
-35.467700000000001
 20
257.00799999999998
 30
0.0
 11
-35.956899999999997
 21
263.51900000000001
 31
0.0
  0
ARC
  5
437
  8
_________1
 62
     7
 10
-29.620151
 20
263.90516400000001
 30
0.0
 40
6.3484499999999988
 50
126.053006
 51
183.48501899999999
  0
ARC
  5
438
  8
_________1
 62
     7
 10
-30.249226
 20
264.55645800000002
 30
0.0
 40
5.4531029999999987
 50
95.834941000000015
 51
124.736558
  0
ARC
  5
439
  8
_________1
 62
     7
 10
-30.360679999999999
 20
264.86062299999998
 30
0.0
 40
5.1398060000000001
 50
61.987251000000001
 51
94.943625000000011
  0
ARC
  5
43A
  8
_________1
 62
     7
 10
-30.713334
 20
264.00902000000002
 30
0.0
 40
6.0579159999999996
 50
60.769100000000002
 51
62.825564
  0
ARC
  5
43B
  8
_________1
 62
     7
 10
-30.566489000000001
 20
264.27853599999997
 30
0.0
 40
5.7510129999999986
 50
31.465337999999999
 51
60.734555000000007
  0
ARC
  5
43C
  8
_________1
 62
     7
 10
-31.001683
 20
264.00706099999991
 30
0.0
 40
6.263920999999999
 50
355.53357499999998
 51
31.505521000000002
  0
LINE
  5
43D
  8
_________1
 62
     7
 10
-24.756799999999998
 20
263.51900000000001
 30
0.0
 11
-25.245999999999999
 21
257.00799999999998
 31
0.0
  0
ARC
  5
43E
  8
_________1
 62
     7
 10
-30.676214999999999
 20
263.73166700000002
 30
0.0
 40
6.0608199999999988
 50
343.31815899999998
 51
9.7476789999999998
  0
ARC
  5
43F
  8
_________1
 62
     7
 10
-29.375747
 20
263.90058599999998
 30
0.0
 40
4.7508309999999989
 50
10.395337
 51
21.502547
  0
ARC
  5
440
  8
_________1
 62
     7
 10
-30.098078999999998
 20
263.66635200000002
 30
0.0
 40
5.994885
 50
160.75850399999999
 51
190.41564
  0
ARC
  5
441
  8
_________1
 62
     7
 10
-30.858716000000001
 20
263.601134
 30
0.0
 40
5.235504999999999
 50
191.21860799999999
 51
197.90117900000001
  0
LINE
  5
442
  8
_________1
 62
     7
 10
-29.482500000000002
 20
247.89500000000001
 30
0.0
 11
-29.482500000000002
 21
247.88999999999999
 31
0.0
  0
LINE
  5
443
  8
_________1
 62
     7
 10
-29.482500000000002
 20
247.88999999999999
 30
0.0
 11
-29.482500000000002
 21
247.88300000000001
 31
0.0
  0
LINE
  5
444
  8
_________1
 62
     7
 10
-29.482500000000002
 20
247.88300000000001
 30
0.0
 11
-29.484500000000001
 21
247.87799999999999
 31
0.0
  0
LINE
  5
445
  8
_________1
 62
     7
 10
-29.484500000000001
 20
247.87799999999999
 30
0.0
 11
-29.488700000000001
 21
247.87
 31
0.0
  0
LINE
  5
446
  8
_________1
 62
     7
 10
-29.488700000000001
 20
247.87
 30
0.0
 11
-29.492100000000001
 21
247.86500000000001
 31
0.0
  0
LINE
  5
447
  8
_________1
 62
     7
 10
-29.492100000000001
 20
247.86500000000001
 30
0.0
 11
-29.4955
 21
247.86000000000001
 31
0.0
  0
LINE
  5
448
  8
_________1
 62
     7
 10
-29.4955
 20
247.86000000000001
 30
0.0
 11
-29.500699999999998
 21
247.85300000000001
 31
0.0
  0
LINE
  5
449
  8
_________1
 62
     7
 10
-29.500699999999998
 20
247.85300000000001
 30
0.0
 11
-29.5059
 21
247.84800000000001
 31
0.0
  0
LINE
  5
44A
  8
_________1
 62
     7
 10
-29.5059
 20
247.84800000000001
 30
0.0
 11
-29.512799999999999
 21
247.84200000000001
 31
0.0
  0
LINE
  5
44B
  8
_________1
 62
     7
 10
-29.512799999999999
 20
247.84200000000001
 30
0.0
 11
-29.5197
 21
247.83699999999999
 31
0.0
  0
LINE
  5
44C
  8
_________1
 62
     7
 10
-29.5197
 20
247.83699999999999
 30
0.0
 11
-29.527200000000001
 21
247.83199999999999
 31
0.0
  0
LINE
  5
44D
  8
_________1
 62
     7
 10
-29.527200000000001
 20
247.83199999999999
 30
0.0
 11
-29.536200000000001
 21
247.82499999999999
 31
0.0
  0
LINE
  5
44E
  8
_________1
 62
     7
 10
-29.536200000000001
 20
247.82499999999999
 30
0.0
 11
-29.544499999999999
 21
247.821
 31
0.0
  0
LINE
  5
44F
  8
_________1
 62
     7
 10
-29.544499999999999
 20
247.821
 30
0.0
 11
-29.563800000000001
 21
247.81100000000001
 31
0.0
  0
LINE
  5
450
  8
_________1
 62
     7
 10
-29.563800000000001
 20
247.81100000000001
 30
0.0
 11
-29.585100000000001
 21
247.80199999999999
 31
0.0
  0
LINE
  5
451
  8
_________1
 62
     7
 10
-29.585100000000001
 20
247.80199999999999
 30
0.0
 11
-29.6099
 21
247.79300000000001
 31
0.0
  0
LINE
  5
452
  8
_________1
 62
     7
 10
-29.6099
 20
247.79300000000001
 30
0.0
 11
-29.636099999999999
 21
247.78399999999999
 31
0.0
  0
LINE
  5
453
  8
_________1
 62
     7
 10
-29.636099999999999
 20
247.78399999999999
 30
0.0
 11
-29.664400000000001
 21
247.779
 31
0.0
  0
LINE
  5
454
  8
_________1
 62
     7
 10
-29.664400000000001
 20
247.779
 30
0.0
 11
-29.694700000000001
 21
247.77199999999999
 31
0.0
  0
LINE
  5
455
  8
_________1
 62
     7
 10
-29.694700000000001
 20
247.77199999999999
 30
0.0
 11
-29.724599999999999
 21
247.768
 31
0.0
  0
LINE
  5
456
  8
_________1
 62
     7
 10
-29.724599999999999
 20
247.768
 30
0.0
 11
-29.755700000000001
 21
247.76300000000001
 31
0.0
  0
LINE
  5
457
  8
_________1
 62
     7
 10
-29.755700000000001
 20
247.76300000000001
 30
0.0
 11
-29.789100000000001
 21
247.761
 31
0.0
  0
LINE
  5
458
  8
_________1
 62
     7
 10
-29.789100000000001
 20
247.761
 30
0.0
 11
-29.822800000000001
 21
247.75999999999999
 31
0.0
  0
LINE
  5
459
  8
_________1
 62
     7
 10
-29.822800000000001
 20
247.75999999999999
 30
0.0
 11
-29.8566
 21
247.75999999999999
 31
0.0
  0
LINE
  5
45A
  8
_________1
 62
     7
 10
-29.482500000000002
 20
246.41
 30
0.0
 11
-29.482500000000002
 21
246.40299999999999
 31
0.0
  0
LINE
  5
45B
  8
_________1
 62
     7
 10
-29.482500000000002
 20
246.40299999999999
 30
0.0
 11
-29.482500000000002
 21
246.398
 31
0.0
  0
LINE
  5
45C
  8
_________1
 62
     7
 10
-29.482500000000002
 20
246.398
 30
0.0
 11
-29.484500000000001
 21
246.39099999999999
 31
0.0
  0
LINE
  5
45D
  8
_________1
 62
     7
 10
-29.484500000000001
 20
246.39099999999999
 30
0.0
 11
-29.488700000000001
 21
246.38499999999999
 31
0.0
  0
LINE
  5
45E
  8
_________1
 62
     7
 10
-29.488700000000001
 20
246.38499999999999
 30
0.0
 11
-29.492100000000001
 21
246.37799999999999
 31
0.0
  0
LINE
  5
45F
  8
_________1
 62
     7
 10
-29.492100000000001
 20
246.37799999999999
 30
0.0
 11
-29.4955
 21
246.37299999999999
 31
0.0
  0
LINE
  5
460
  8
_________1
 62
     7
 10
-29.4955
 20
246.37299999999999
 30
0.0
 11
-29.500699999999998
 21
246.36600000000001
 31
0.0
  0
LINE
  5
461
  8
_________1
 62
     7
 10
-29.500699999999998
 20
246.36600000000001
 30
0.0
 11
-29.5059
 21
246.36099999999999
 31
0.0
  0
LINE
  5
462
  8
_________1
 62
     7
 10
-29.5059
 20
246.36099999999999
 30
0.0
 11
-29.512799999999999
 21
246.35599999999999
 31
0.0
  0
LINE
  5
463
  8
_________1
 62
     7
 10
-29.512799999999999
 20
246.35599999999999
 30
0.0
 11
-29.5197
 21
246.34800000000001
 31
0.0
  0
LINE
  5
464
  8
_________1
 62
     7
 10
-29.5197
 20
246.34800000000001
 30
0.0
 11
-29.527200000000001
 21
246.34299999999999
 31
0.0
  0
LINE
  5
465
  8
_________1
 62
     7
 10
-29.527200000000001
 20
246.34299999999999
 30
0.0
 11
-29.536200000000001
 21
246.33799999999999
 31
0.0
  0
LINE
  5
466
  8
_________1
 62
     7
 10
-29.536200000000001
 20
246.33799999999999
 30
0.0
 11
-29.544499999999999
 21
246.333
 31
0.0
  0
LINE
  5
467
  8
_________1
 62
     7
 10
-29.544499999999999
 20
246.333
 30
0.0
 11
-29.563800000000001
 21
246.322
 31
0.0
  0
LINE
  5
468
  8
_________1
 62
     7
 10
-29.563800000000001
 20
246.322
 30
0.0
 11
-29.585100000000001
 21
246.31299999999999
 31
0.0
  0
LINE
  5
469
  8
_________1
 62
     7
 10
-29.585100000000001
 20
246.31299999999999
 30
0.0
 11
-29.6099
 21
246.304
 31
0.0
  0
LINE
  5
46A
  8
_________1
 62
     7
 10
-29.6099
 20
246.304
 30
0.0
 11
-29.636099999999999
 21
246.297
 31
0.0
  0
LINE
  5
46B
  8
_________1
 62
     7
 10
-29.636099999999999
 20
246.297
 30
0.0
 11
-29.664400000000001
 21
246.28999999999999
 31
0.0
  0
LINE
  5
46C
  8
_________1
 62
     7
 10
-29.664400000000001
 20
246.28999999999999
 30
0.0
 11
-29.694700000000001
 21
246.285
 31
0.0
  0
LINE
  5
46D
  8
_________1
 62
     7
 10
-29.694700000000001
 20
246.285
 30
0.0
 11
-29.724599999999999
 21
246.28
 31
0.0
  0
LINE
  5
46E
  8
_________1
 62
     7
 10
-29.724599999999999
 20
246.28
 30
0.0
 11
-29.755700000000001
 21
246.27600000000001
 31
0.0
  0
LINE
  5
46F
  8
_________1
 62
     7
 10
-29.755700000000001
 20
246.27600000000001
 30
0.0
 11
-29.789100000000001
 21
246.27199999999999
 31
0.0
  0
LINE
  5
470
  8
_________1
 62
     7
 10
-29.789100000000001
 20
246.27199999999999
 30
0.0
 11
-29.822800000000001
 21
246.27099999999999
 31
0.0
  0
LINE
  5
471
  8
_________1
 62
     7
 10
-29.822800000000001
 20
246.27099999999999
 30
0.0
 11
-29.8566
 21
246.27099999999999
 31
0.0
  0
LINE
  5
472
  8
_________1
 62
     7
 10
-31.2302
 20
246.41
 30
0.0
 11
-31.209499999999998
 21
246.364
 31
0.0
  0
LINE
  5
473
  8
_________1
 62
     7
 10
-31.209499999999998
 20
246.364
 30
0.0
 11
-31.1509
 21
246.32400000000001
 31
0.0
  0
LINE
  5
474
  8
_________1
 62
     7
 10
-31.1509
 20
246.32400000000001
 30
0.0
 11
-31.061299999999999
 21
246.29400000000001
 31
0.0
  0
LINE
  5
475
  8
_________1
 62
     7
 10
-31.061299999999999
 20
246.29400000000001
 30
0.0
 11
-30.948699999999999
 21
246.27500000000001
 31
0.0
  0
LINE
  5
476
  8
_________1
 62
     7
 10
-30.948699999999999
 20
246.27500000000001
 30
0.0
 11
-30.855699999999999
 21
246.27099999999999
 31
0.0
  0
LINE
  5
477
  8
_________1
 62
     7
 10
-31.2302
 20
247.89500000000001
 30
0.0
 11
-31.209499999999998
 21
247.851
 31
0.0
  0
LINE
  5
478
  8
_________1
 62
     7
 10
-31.209499999999998
 20
247.851
 30
0.0
 11
-31.1509
 21
247.81200000000001
 31
0.0
  0
LINE
  5
479
  8
_________1
 62
     7
 10
-31.1509
 20
247.81200000000001
 30
0.0
 11
-31.061299999999999
 21
247.78100000000001
 31
0.0
  0
LINE
  5
47A
  8
_________1
 62
     7
 10
-31.061299999999999
 20
247.78100000000001
 30
0.0
 11
-30.948699999999999
 21
247.76300000000001
 31
0.0
  0
LINE
  5
47B
  8
_________1
 62
     7
 10
-30.948699999999999
 20
247.76300000000001
 30
0.0
 11
-30.855699999999999
 21
247.75999999999999
 31
0.0
  0
LINE
  5
47C
  8
_________1
 62
     7
 10
-25.1754
 20
253.83199999999999
 30
0.0
 11
-25.1754
 21
253.94800000000001
 31
0.0
  0
LINE
  5
47D
  8
_________1
 62
     7
 10
-25.1754
 20
253.94800000000001
 30
0.0
 11
-25.180499999999999
 21
254.066
 31
0.0
  0
LINE
  5
47E
  8
_________1
 62
     7
 10
-25.180499999999999
 20
254.066
 30
0.0
 11
-25.188500000000001
 21
254.18199999999999
 31
0.0
  0
LINE
  5
47F
  8
_________1
 62
     7
 10
-25.188500000000001
 20
254.18199999999999
 30
0.0
 11
-25.198799999999999
 21
254.30000000000001
 31
0.0
  0
LINE
  5
480
  8
_________1
 62
     7
 10
-25.198799999999999
 20
254.30000000000001
 30
0.0
 11
-25.212599999999998
 21
254.417
 31
0.0
  0
LINE
  5
481
  8
_________1
 62
     7
 10
-25.212599999999998
 20
254.417
 30
0.0
 11
-25.2288
 21
254.53299999999999
 31
0.0
  0
LINE
  5
482
  8
_________1
 62
     7
 10
-25.2288
 20
254.53299999999999
 30
0.0
 11
-25.247699999999998
 21
254.649
 31
0.0
  0
LINE
  5
483
  8
_________1
 62
     7
 10
-25.247699999999998
 20
254.649
 30
0.0
 11
-25.271100000000001
 21
254.76400000000001
 31
0.0
  0
LINE
  5
484
  8
_________1
 62
     7
 10
-25.271100000000001
 20
254.76400000000001
 30
0.0
 11
-25.297699999999999
 21
254.87799999999999
 31
0.0
  0
LINE
  5
485
  8
_________1
 62
     7
 10
-25.297699999999999
 20
254.87799999999999
 30
0.0
 11
-25.325199999999999
 21
254.99299999999999
 31
0.0
  0
LINE
  5
486
  8
_________1
 62
     7
 10
-25.325199999999999
 20
254.99299999999999
 30
0.0
 11
-25.3552
 21
255.107
 31
0.0
  0
LINE
  5
487
  8
_________1
 62
     7
 10
-25.3552
 20
255.107
 30
0.0
 11
-25.390699999999999
 21
255.22
 31
0.0
  0
LINE
  5
488
  8
_________1
 62
     7
 10
-25.390699999999999
 20
255.22
 30
0.0
 11
-25.427499999999998
 21
255.33099999999999
 31
0.0
  0
LINE
  5
489
  8
_________1
 62
     7
 10
-25.427499999999998
 20
255.33099999999999
 30
0.0
 11
-25.4665
 21
255.44200000000001
 31
0.0
  0
LINE
  5
48A
  8
_________1
 62
     7
 10
-25.4665
 20
255.44200000000001
 30
0.0
 11
-25.510200000000001
 21
255.553
 31
0.0
  0
LINE
  5
48B
  8
_________1
 62
     7
 10
-25.510200000000001
 20
255.553
 30
0.0
 11
-25.556100000000001
 21
255.66200000000001
 31
0.0
  0
LINE
  5
48C
  8
_________1
 62
     7
 10
-25.556100000000001
 20
255.66200000000001
 30
0.0
 11
-25.603300000000001
 21
255.77000000000001
 31
0.0
  0
LINE
  5
48D
  8
_________1
 62
     7
 10
-25.603300000000001
 20
255.77000000000001
 30
0.0
 11
-25.654900000000001
 21
255.87700000000001
 31
0.0
  0
LINE
  5
48E
  8
_________1
 62
     7
 10
-25.654900000000001
 20
255.87700000000001
 30
0.0
 11
-25.707599999999999
 21
255.983
 31
0.0
  0
LINE
  5
48F
  8
_________1
 62
     7
 10
-25.707599999999999
 20
255.983
 30
0.0
 11
-25.766200000000001
 21
256.08800000000002
 31
0.0
  0
LINE
  5
490
  8
_________1
 62
     7
 10
-25.766200000000001
 20
256.08800000000002
 30
0.0
 11
-25.823699999999999
 21
256.19099999999997
 31
0.0
  0
LINE
  5
491
  8
_________1
 62
     7
 10
-25.823699999999999
 20
256.19099999999997
 30
0.0
 11
-25.8857
 21
256.29300000000001
 31
0.0
  0
LINE
  5
492
  8
_________1
 62
     7
 10
-25.8857
 20
256.29300000000001
 30
0.0
 11
-25.950500000000002
 21
256.39299999999997
 31
0.0
  0
LINE
  5
493
  8
_________1
 62
     7
 10
-25.950500000000002
 20
256.39299999999997
 30
0.0
 11
-26.017700000000001
 21
256.49200000000002
 31
0.0
  0
LINE
  5
494
  8
_________1
 62
     7
 10
-26.017700000000001
 20
256.49200000000002
 30
0.0
 11
-26.086600000000001
 21
256.59100000000001
 31
0.0
  0
LINE
  5
495
  8
_________1
 62
     7
 10
-26.086600000000001
 20
256.59100000000001
 30
0.0
 11
-26.158899999999999
 21
256.68599999999998
 31
0.0
  0
LINE
  5
496
  8
_________1
 62
     7
 10
-26.158899999999999
 20
256.68599999999998
 30
0.0
 11
-26.233000000000001
 21
256.779
 31
0.0
  0
LINE
  5
497
  8
_________1
 62
     7
 10
-26.233000000000001
 20
256.779
 30
0.0
 11
-26.310500000000001
 21
256.87200000000001
 31
0.0
  0
LINE
  5
498
  8
_________1
 62
     7
 10
-26.310500000000001
 20
256.87200000000001
 30
0.0
 11
-26.389800000000001
 21
256.96199999999999
 31
0.0
  0
LINE
  5
499
  8
_________1
 62
     7
 10
-26.389800000000001
 20
256.96199999999999
 30
0.0
 11
-26.470700000000001
 21
257.05200000000002
 31
0.0
  0
LINE
  5
49A
  8
_________1
 62
     7
 10
-26.470700000000001
 20
257.05200000000002
 30
0.0
 11
-26.555099999999999
 21
257.13799999999998
 31
0.0
  0
LINE
  5
49B
  8
_________1
 62
     7
 10
-26.555099999999999
 20
257.13799999999998
 30
0.0
 11
-26.639500000000002
 21
257.22500000000002
 31
0.0
  0
LINE
  5
49C
  8
_________1
 62
     7
 10
-26.639500000000002
 20
257.22500000000002
 30
0.0
 11
-26.727399999999999
 21
257.30799999999999
 31
0.0
  0
LINE
  5
49D
  8
_________1
 62
     7
 10
-26.727399999999999
 20
257.30799999999999
 30
0.0
 11
-26.819400000000002
 21
257.38900000000001
 31
0.0
  0
LINE
  5
49E
  8
_________1
 62
     7
 10
-26.819400000000002
 20
257.38900000000001
 30
0.0
 11
-26.911000000000001
 21
257.46800000000002
 31
0.0
  0
LINE
  5
49F
  8
_________1
 62
     7
 10
-26.911000000000001
 20
257.46800000000002
 30
0.0
 11
-27.0047
 21
257.54399999999998
 31
0.0
  0
LINE
  5
4A0
  8
_________1
 62
     7
 10
-27.0047
 20
257.54399999999998
 30
0.0
 11
-27.101199999999999
 21
257.61900000000003
 31
0.0
  0
LINE
  5
4A1
  8
_________1
 62
     7
 10
-27.101199999999999
 20
257.61900000000003
 30
0.0
 11
-27.199400000000001
 21
257.69200000000001
 31
0.0
  0
LINE
  5
4A2
  8
_________1
 62
     7
 10
-27.199400000000001
 20
257.69200000000001
 30
0.0
 11
-27.298200000000001
 21
257.762
 31
0.0
  0
LINE
  5
4A3
  8
_________1
 62
     7
 10
-27.298200000000001
 20
257.762
 30
0.0
 11
-27.4009
 21
257.83100000000002
 31
0.0
  0
LINE
  5
4A4
  8
_________1
 62
     7
 10
-27.4009
 20
257.83100000000002
 30
0.0
 11
-27.504300000000001
 21
257.8959999999999
 31
0.0
  0
LINE
  5
4A5
  8
_________1
 62
     7
 10
-27.504300000000001
 20
257.8959999999999
 30
0.0
 11
-27.6083
 21
257.959
 31
0.0
  0
LINE
  5
4A6
  8
_________1
 62
     7
 10
-27.6083
 20
257.959
 30
0.0
 11
-27.716100000000001
 21
258.02100000000002
 31
0.0
  0
LINE
  5
4A7
  8
_________1
 62
     7
 10
-27.716100000000001
 20
258.02100000000002
 30
0.0
 11
-27.824000000000002
 21
258.07900000000001
 31
0.0
  0
LINE
  5
4A8
  8
_________1
 62
     7
 10
-27.824000000000002
 20
258.07900000000001
 30
0.0
 11
-27.934200000000001
 21
258.13600000000002
 31
0.0
  0
LINE
  5
4A9
  8
_________1
 62
     7
 10
-27.934200000000001
 20
258.13600000000002
 30
0.0
 11
-28.045100000000001
 21
258.18799999999999
 31
0.0
  0
LINE
  5
4AA
  8
_________1
 62
     7
 10
-28.045100000000001
 20
258.18799999999999
 30
0.0
 11
-28.156099999999999
 21
258.24000000000001
 31
0.0
  0
LINE
  5
4AB
  8
_________1
 62
     7
 10
-28.156099999999999
 20
258.24000000000001
 30
0.0
 11
-28.270800000000001
 21
258.28899999999999
 31
0.0
  0
LINE
  5
4AC
  8
_________1
 62
     7
 10
-28.270800000000001
 20
258.28899999999999
 30
0.0
 11
-28.3855
 21
258.33499999999998
 31
0.0
  0
LINE
  5
4AD
  8
_________1
 62
     7
 10
-28.3855
 20
258.33499999999998
 30
0.0
 11
-28.5016
 21
258.37700000000001
 31
0.0
  0
LINE
  5
4AE
  8
_________1
 62
     7
 10
-28.5016
 20
258.37700000000001
 30
0.0
 11
-28.617699999999999
 21
258.41699999999997
 31
0.0
  0
LINE
  5
4AF
  8
_________1
 62
     7
 10
-28.617699999999999
 20
258.41699999999997
 30
0.0
 11
-28.7376
 21
258.45600000000002
 31
0.0
  0
LINE
  5
4B0
  8
_________1
 62
     7
 10
-28.7376
 20
258.45600000000002
 30
0.0
 11
-28.855399999999999
 21
258.49099999999999
 31
0.0
  0
LINE
  5
4B1
  8
_________1
 62
     7
 10
-28.855399999999999
 20
258.49099999999999
 30
0.0
 11
-28.975300000000001
 21
258.52300000000002
 31
0.0
  0
LINE
  5
4B2
  8
_________1
 62
     7
 10
-28.975300000000001
 20
258.52300000000002
 30
0.0
 11
-29.096599999999999
 21
258.553
 31
0.0
  0
LINE
  5
4B3
  8
_________1
 62
     7
 10
-29.096599999999999
 20
258.553
 30
0.0
 11
-29.219200000000001
 21
258.5809999999999
 31
0.0
  0
LINE
  5
4B4
  8
_________1
 62
     7
 10
-29.219200000000001
 20
258.5809999999999
 30
0.0
 11
-29.340499999999999
 21
258.60599999999999
 31
0.0
  0
LINE
  5
4B5
  8
_________1
 62
     7
 10
-29.340499999999999
 20
258.60599999999999
 30
0.0
 11
-29.463799999999999
 21
258.62700000000001
 31
0.0
  0
LINE
  5
4B6
  8
_________1
 62
     7
 10
-29.463799999999999
 20
258.62700000000001
 30
0.0
 11
-29.5868
 21
258.64600000000002
 31
0.0
  0
LINE
  5
4B7
  8
_________1
 62
     7
 10
-29.5868
 20
258.64600000000002
 30
0.0
 11
-29.709800000000001
 21
258.66199999999998
 31
0.0
  0
LINE
  5
4B8
  8
_________1
 62
     7
 10
-29.709800000000001
 20
258.66199999999998
 30
0.0
 11
-29.833200000000001
 21
258.67500000000001
 31
0.0
  0
LINE
  5
4B9
  8
_________1
 62
     7
 10
-29.833200000000001
 20
258.67500000000001
 30
0.0
 11
-29.9589
 21
258.685
 31
0.0
  0
LINE
  5
4BA
  8
_________1
 62
     7
 10
-29.9589
 20
258.685
 30
0.0
 11
-30.081900000000001
 21
258.69200000000001
 31
0.0
  0
LINE
  5
4BB
  8
_________1
 62
     7
 10
-30.081900000000001
 20
258.69200000000001
 30
0.0
 11
-30.207000000000001
 21
258.69799999999998
 31
0.0
  0
LINE
  5
4BC
  8
_________1
 62
     7
 10
-30.207000000000001
 20
258.69799999999998
 30
0.0
 11
-30.332000000000001
 21
258.69900000000001
 31
0.0
  0
LINE
  5
4BD
  8
_________1
 62
     7
 10
-30.332000000000001
 20
258.69900000000001
 30
0.0
 11
-30.3568
 21
258.69900000000001
 31
0.0
  0
LINE
  5
4BE
  8
_________1
 62
     7
 10
-28.589500000000001
 20
249.495
 30
0.0
 11
-28.545400000000001
 21
249.398
 31
0.0
  0
LINE
  5
4BF
  8
_________1
 62
     7
 10
-28.545400000000001
 20
249.398
 30
0.0
 11
-28.505099999999999
 21
249.32400000000001
 31
0.0
  0
LINE
  5
4C0
  8
_________1
 62
     7
 10
-28.505099999999999
 20
249.32400000000001
 30
0.0
 11
-28.475100000000001
 21
249.285
 31
0.0
  0
LINE
  5
4C1
  8
_________1
 62
     7
 10
-28.475100000000001
 20
249.285
 30
0.0
 11
-28.461300000000001
 21
249.27799999999999
 31
0.0
  0
LINE
  5
4C2
  8
_________1
 62
     7
 10
-32.250900000000001
 20
249.27799999999999
 30
0.0
 11
-32.229199999999999
 21
249.292
 31
0.0
  0
LINE
  5
4C3
  8
_________1
 62
     7
 10
-32.229199999999999
 20
249.292
 30
0.0
 11
-32.195799999999998
 21
249.34299999999999
 31
0.0
  0
LINE
  5
4C4
  8
_________1
 62
     7
 10
-32.195799999999998
 20
249.34299999999999
 30
0.0
 11
-32.153500000000001
 21
249.42400000000001
 31
0.0
  0
LINE
  5
4C5
  8
_________1
 62
     7
 10
-32.153500000000001
 20
249.42400000000001
 30
0.0
 11
-32.121400000000001
 21
249.495
 31
0.0
  0
LINE
  5
4C6
  8
_________1
 62
     7
 10
-30.3568
 20
258.69900000000001
 30
0.0
 11
-30.4802
 21
258.69799999999998
 31
0.0
  0
LINE
  5
4C7
  8
_________1
 62
     7
 10
-30.4802
 20
258.69799999999998
 30
0.0
 11
-30.604900000000001
 21
258.69400000000002
 31
0.0
  0
LINE
  5
4C8
  8
_________1
 62
     7
 10
-30.604900000000001
 20
258.69400000000002
 30
0.0
 11
-30.729600000000001
 21
258.68700000000001
 31
0.0
  0
LINE
  5
4C9
  8
_________1
 62
     7
 10
-30.729600000000001
 20
258.68700000000001
 30
0.0
 11
-30.855699999999999
 21
258.67599999999999
 31
0.0
  0
LINE
  5
4CA
  8
_________1
 62
     7
 10
-30.855699999999999
 20
258.67599999999999
 30
0.0
 11
-30.9787
 21
258.66399999999999
 31
0.0
  0
LINE
  5
4CB
  8
_________1
 62
     7
 10
-30.9787
 20
258.66399999999999
 30
0.0
 11
-31.101700000000001
 21
258.64800000000002
 31
0.0
  0
LINE
  5
4CC
  8
_________1
 62
     7
 10
-31.101700000000001
 20
258.64800000000002
 30
0.0
 11
-31.225000000000001
 21
258.63099999999997
 31
0.0
  0
LINE
  5
4CD
  8
_________1
 62
     7
 10
-31.225000000000001
 20
258.63099999999997
 30
0.0
 11
-31.348299999999998
 21
258.60899999999998
 31
0.0
  0
LINE
  5
4CE
  8
_________1
 62
     7
 10
-31.348299999999998
 20
258.60899999999998
 30
0.0
 11
-31.470300000000002
 21
258.58699999999999
 31
0.0
  0
LINE
  5
4CF
  8
_________1
 62
     7
 10
-31.470300000000002
 20
258.58699999999999
 30
0.0
 11
-31.591899999999999
 21
258.55799999999999
 31
0.0
  0
LINE
  5
4D0
  8
_________1
 62
     7
 10
-31.591899999999999
 20
258.55799999999999
 30
0.0
 11
-31.7135
 21
258.52999999999997
 31
0.0
  0
LINE
  5
4D1
  8
_________1
 62
     7
 10
-31.7135
 20
258.52999999999997
 30
0.0
 11
-31.833100000000002
 21
258.49799999999999
 31
0.0
  0
LINE
  5
4D2
  8
_________1
 62
     7
 10
-31.833100000000002
 20
258.49799999999999
 30
0.0
 11
-31.9526
 21
258.46300000000002
 31
0.0
  0
LINE
  5
4D3
  8
_________1
 62
     7
 10
-31.9526
 20
258.46300000000002
 30
0.0
 11
-32.070799999999998
 21
258.42700000000002
 31
0.0
  0
LINE
  5
4D4
  8
_________1
 62
     7
 10
-32.070799999999998
 20
258.42700000000002
 30
0.0
 11
-32.188899999999997
 21
258.38600000000002
 31
0.0
  0
LINE
  5
4D5
  8
_________1
 62
     7
 10
-32.188899999999997
 20
258.38600000000002
 30
0.0
 11
-32.3033
 21
258.34199999999998
 31
0.0
  0
LINE
  5
4D6
  8
_________1
 62
     7
 10
-32.3033
 20
258.34199999999998
 30
0.0
 11
-32.419800000000002
 21
258.298
 31
0.0
  0
LINE
  5
4D7
  8
_________1
 62
     7
 10
-32.419800000000002
 20
258.298
 30
0.0
 11
-32.532400000000003
 21
258.24799999999999
 31
0.0
  0
LINE
  5
4D8
  8
_________1
 62
     7
 10
-32.532400000000003
 20
258.24799999999999
 30
0.0
 11
-32.645099999999999
 21
258.19900000000001
 31
0.0
  0
LINE
  5
4D9
  8
_________1
 62
     7
 10
-32.645099999999999
 20
258.19900000000001
 30
0.0
 11
-32.758099999999999
 21
258.1459999999999
 31
0.0
  0
LINE
  5
4DA
  8
_________1
 62
     7
 10
-32.758099999999999
 20
258.1459999999999
 30
0.0
 11
-32.86760000000001
 21
258.08999999999997
 31
0.0
  0
LINE
  5
4DB
  8
_________1
 62
     7
 10
-32.86760000000001
 20
258.08999999999997
 30
0.0
 11
-32.9758
 21
258.03199999999998
 31
0.0
  0
LINE
  5
4DC
  8
_________1
 62
     7
 10
-32.9758
 20
258.03199999999998
 30
0.0
 11
-33.081899999999997
 21
257.97199999999998
 31
0.0
  0
LINE
  5
4DD
  8
_________1
 62
     7
 10
-33.081899999999997
 20
257.97199999999998
 30
0.0
 11
-33.188000000000002
 21
257.90800000000002
 31
0.0
  0
LINE
  5
4DE
  8
_________1
 62
     7
 10
-33.188000000000002
 20
257.90800000000002
 30
0.0
 11
-33.292099999999998
 21
257.84300000000002
 31
0.0
  0
LINE
  5
4DF
  8
_________1
 62
     7
 10
-33.292099999999998
 20
257.84300000000002
 30
0.0
 11
-33.39370000000001
 21
257.77499999999998
 31
0.0
  0
LINE
  5
4E0
  8
_________1
 62
     7
 10
-33.39370000000001
 20
257.77499999999998
 30
0.0
 11
-33.494599999999998
 21
257.7059999999999
 31
0.0
  0
LINE
  5
4E1
  8
_________1
 62
     7
 10
-33.494599999999998
 20
257.7059999999999
 30
0.0
 11
-33.592500000000001
 21
257.63400000000001
 31
0.0
  0
LINE
  5
4E2
  8
_________1
 62
     7
 10
-33.592500000000001
 20
257.63400000000001
 30
0.0
 11
-33.688299999999998
 21
257.55900000000003
 31
0.0
  0
LINE
  5
4E3
  8
_________1
 62
     7
 10
-33.688299999999998
 20
257.55900000000003
 30
0.0
 11
-33.783000000000001
 21
257.48200000000003
 31
0.0
  0
LINE
  5
4E4
  8
_________1
 62
     7
 10
-33.783000000000001
 20
257.48200000000003
 30
0.0
 11
-33.877000000000002
 21
257.404
 31
0.0
  0
LINE
  5
4E5
  8
_________1
 62
     7
 10
-33.877000000000002
 20
257.404
 30
0.0
 11
-33.9666
 21
257.32299999999998
 31
0.0
  0
LINE
  5
4E6
  8
_________1
 62
     7
 10
-33.9666
 20
257.32299999999998
 30
0.0
 11
-34.054099999999998
 21
257.24099999999999
 31
0.0
  0
LINE
  5
4E7
  8
_________1
 62
     7
 10
-34.054099999999998
 20
257.24099999999999
 30
0.0
 11
-34.140300000000003
 21
257.15600000000001
 31
0.0
  0
LINE
  5
4E8
  8
_________1
 62
     7
 10
-34.140300000000003
 20
257.15600000000001
 30
0.0
 11
-34.225000000000001
 21
257.06799999999998
 31
0.0
  0
LINE
  5
4E9
  8
_________1
 62
     7
 10
-34.225000000000001
 20
257.06799999999998
 30
0.0
 11
-34.308399999999999
 21
256.98000000000002
 31
0.0
  0
LINE
  5
4EA
  8
_________1
 62
     7
 10
-34.308399999999999
 20
256.98000000000002
 30
0.0
 11
-34.387599999999999
 21
256.88999999999999
 31
0.0
  0
LINE
  5
4EB
  8
_________1
 62
     7
 10
-34.387599999999999
 20
256.88999999999999
 30
0.0
 11
-34.4651
 21
256.79899999999998
 31
0.0
  0
LINE
  5
4EC
  8
_________1
 62
     7
 10
-34.4651
 20
256.79899999999998
 30
0.0
 11
-34.539200000000001
 21
256.70299999999997
 31
0.0
  0
LINE
  5
4ED
  8
_________1
 62
     7
 10
-34.539200000000001
 20
256.70299999999997
 30
0.0
 11
-34.610900000000001
 21
256.608
 31
0.0
  0
LINE
  5
4EE
  8
_________1
 62
     7
 10
-34.610900000000001
 20
256.608
 30
0.0
 11
-34.681100000000001
 21
256.51100000000002
 31
0.0
  0
LINE
  5
4EF
  8
_________1
 62
     7
 10
-34.681100000000001
 20
256.51100000000002
 30
0.0
 11
-34.748699999999999
 21
256.41300000000001
 31
0.0
  0
LINE
  5
4F0
  8
_________1
 62
     7
 10
-34.748699999999999
 20
256.41300000000001
 30
0.0
 11
-34.814100000000003
 21
256.31200000000001
 31
0.0
  0
LINE
  5
4F1
  8
_________1
 62
     7
 10
-34.814100000000003
 20
256.31200000000001
 30
0.0
 11
-34.875100000000003
 21
256.20999999999998
 31
0.0
  0
LINE
  5
4F2
  8
_________1
 62
     7
 10
-34.875100000000003
 20
256.20999999999998
 30
0.0
 11
-34.935400000000001
 21
256.108
 31
0.0
  0
LINE
  5
4F3
  8
_________1
 62
     7
 10
-34.935400000000001
 20
256.108
 30
0.0
 11
-34.993299999999998
 21
256.00400000000002
 31
0.0
  0
LINE
  5
4F4
  8
_________1
 62
     7
 10
-34.993299999999998
 20
256.00400000000002
 30
0.0
 11
-35.046300000000009
 21
255.898
 31
0.0
  0
LINE
  5
4F5
  8
_________1
 62
     7
 10
-35.046300000000009
 20
255.898
 30
0.0
 11
-35.098999999999997
 21
255.791
 31
0.0
  0
LINE
  5
4F6
  8
_________1
 62
     7
 10
-35.098999999999997
 20
255.791
 30
0.0
 11
-35.148299999999999
 21
255.684
 31
0.0
  0
LINE
  5
4F7
  8
_________1
 62
     7
 10
-35.148299999999999
 20
255.684
 30
0.0
 11
-35.193800000000003
 21
255.57400000000001
 31
0.0
  0
LINE
  5
4F8
  8
_________1
 62
     7
 10
-35.193800000000003
 20
255.57400000000001
 30
0.0
 11
-35.236800000000009
 21
255.46299999999999
 31
0.0
  0
LINE
  5
4F9
  8
_________1
 62
     7
 10
-35.236800000000009
 20
255.46299999999999
 30
0.0
 11
-35.277099999999997
 21
255.352
 31
0.0
  0
LINE
  5
4FA
  8
_________1
 62
     7
 10
-35.277099999999997
 20
255.352
 30
0.0
 11
-35.316099999999999
 21
255.24100000000001
 31
0.0
  0
LINE
  5
4FB
  8
_________1
 62
     7
 10
-35.316099999999999
 20
255.24100000000001
 30
0.0
 11
-35.348799999999997
 21
255.12899999999999
 31
0.0
  0
LINE
  5
4FC
  8
_________1
 62
     7
 10
-35.348799999999997
 20
255.12899999999999
 30
0.0
 11
-35.380499999999998
 21
255.01599999999999
 31
0.0
  0
LINE
  5
4FD
  8
_________1
 62
     7
 10
-35.380499999999998
 20
255.01599999999999
 30
0.0
 11
-35.410800000000002
 21
254.90100000000001
 31
0.0
  0
LINE
  5
4FE
  8
_________1
 62
     7
 10
-35.410800000000002
 20
254.90100000000001
 30
0.0
 11
-35.435600000000001
 21
254.78700000000001
 31
0.0
  0
LINE
  5
4FF
  8
_________1
 62
     7
 10
-35.435600000000001
 20
254.78700000000001
 30
0.0
 11
-35.458399999999997
 21
254.66999999999999
 31
0.0
  0
LINE
  5
500
  8
_________1
 62
     7
 10
-35.458399999999997
 20
254.66999999999999
 30
0.0
 11
-35.479700000000001
 21
254.554
 31
0.0
  0
LINE
  5
501
  8
_________1
 62
     7
 10
-35.479700000000001
 20
254.554
 30
0.0
 11
-35.496899999999997
 21
254.43799999999999
 31
0.0
  0
LINE
  5
502
  8
_________1
 62
     7
 10
-35.496899999999997
 20
254.43799999999999
 30
0.0
 11
-35.511400000000002
 21
254.322
 31
0.0
  0
LINE
  5
503
  8
_________1
 62
     7
 10
-35.511400000000002
 20
254.322
 30
0.0
 11
-35.521700000000003
 21
254.20599999999999
 31
0.0
  0
LINE
  5
504
  8
_________1
 62
     7
 10
-35.521700000000003
 20
254.20599999999999
 30
0.0
 11
-35.528599999999997
 21
254.089
 31
0.0
  0
LINE
  5
505
  8
_________1
 62
     7
 10
-35.528599999999997
 20
254.089
 30
0.0
 11
-35.534100000000002
 21
253.971
 31
0.0
  0
LINE
  5
506
  8
_________1
 62
     7
 10
-35.534100000000002
 20
253.971
 30
0.0
 11
-35.535499999999999
 21
253.85300000000001
 31
0.0
  0
LINE
  5
507
  8
_________1
 62
     7
 10
-35.535499999999999
 20
253.85300000000001
 30
0.0
 11
-35.537599999999998
 21
253.83199999999999
 31
0.0
  0
LINE
  5
508
  8
_________1
 62
     7
 10
-29.8566
 20
246.27099999999999
 30
0.0
 11
-29.8566
 21
247.75999999999999
 31
0.0
  0
LINE
  5
509
  8
_________1
 62
     7
 10
-29.8566
 20
247.75999999999999
 30
0.0
 11
-29.854500000000002
 21
247.816
 31
0.0
  0
LINE
  5
50A
  8
_________1
 62
     7
 10
-29.854500000000002
 20
247.816
 30
0.0
 11
-29.853100000000001
 21
247.87200000000001
 31
0.0
  0
LINE
  5
50B
  8
_________1
 62
     7
 10
-29.853100000000001
 20
247.87200000000001
 30
0.0
 11
-29.8476
 21
247.929
 31
0.0
  0
LINE
  5
50C
  8
_________1
 62
     7
 10
-29.8476
 20
247.929
 30
0.0
 11
-29.840699999999998
 21
247.98500000000001
 31
0.0
  0
LINE
  5
50D
  8
_________1
 62
     7
 10
-29.840699999999998
 20
247.98500000000001
 30
0.0
 11
-29.833200000000001
 21
248.041
 31
0.0
  0
LINE
  5
50E
  8
_________1
 62
     7
 10
-29.833200000000001
 20
248.041
 30
0.0
 11
-29.822800000000001
 21
248.09800000000001
 31
0.0
  0
LINE
  5
50F
  8
_________1
 62
     7
 10
-29.822800000000001
 20
248.09800000000001
 30
0.0
 11
-29.8125
 21
248.14400000000001
 31
0.0
  0
LINE
  5
510
  8
_________1
 62
     7
 10
-29.8125
 20
248.14400000000001
 30
0.0
 11
-29.802199999999999
 21
248.18899999999999
 31
0.0
  0
LINE
  5
511
  8
_________1
 62
     7
 10
-29.802199999999999
 20
248.18899999999999
 30
0.0
 11
-29.789100000000001
 21
248.233
 31
0.0
  0
LINE
  5
512
  8
_________1
 62
     7
 10
-29.789100000000001
 20
248.233
 30
0.0
 11
-29.7774
 21
248.279
 31
0.0
  0
LINE
  5
513
  8
_________1
 62
     7
 10
-29.7774
 20
248.279
 30
0.0
 11
-29.761500000000002
 21
248.32300000000001
 31
0.0
  0
LINE
  5
514
  8
_________1
 62
     7
 10
-29.761500000000002
 20
248.32300000000001
 30
0.0
 11
-29.7453
 21
248.369
 31
0.0
  0
LINE
  5
515
  8
_________1
 62
     7
 10
-29.7453
 20
248.369
 30
0.0
 11
-29.728100000000001
 21
248.41300000000001
 31
0.0
  0
LINE
  5
516
  8
_________1
 62
     7
 10
-29.728100000000001
 20
248.41300000000001
 30
0.0
 11
-29.716699999999999
 21
248.441
 31
0.0
  0
LINE
  5
517
  8
_________1
 62
     7
 10
-29.716699999999999
 20
248.441
 30
0.0
 11
-29.704999999999998
 21
248.46899999999999
 31
0.0
  0
LINE
  5
518
  8
_________1
 62
     7
 10
-29.704999999999998
 20
248.46899999999999
 30
0.0
 11
-29.6799
 21
248.52199999999999
 31
0.0
  0
LINE
  5
519
  8
_________1
 62
     7
 10
-29.6799
 20
248.52199999999999
 30
0.0
 11
-29.6557
 21
248.56999999999999
 31
0.0
  0
LINE
  5
51A
  8
_________1
 62
     7
 10
-29.6557
 20
248.56999999999999
 30
0.0
 11
-29.630600000000001
 21
248.61600000000001
 31
0.0
  0
LINE
  5
51B
  8
_________1
 62
     7
 10
-29.630600000000001
 20
248.61600000000001
 30
0.0
 11
-29.608499999999999
 21
248.65799999999999
 31
0.0
  0
LINE
  5
51C
  8
_________1
 62
     7
 10
-29.608499999999999
 20
248.65799999999999
 30
0.0
 11
-29.583400000000001
 21
248.69900000000001
 31
0.0
  0
LINE
  5
51D
  8
_________1
 62
     7
 10
-29.583400000000001
 20
248.69900000000001
 30
0.0
 11
-29.560300000000002
 21
248.73599999999999
 31
0.0
  0
LINE
  5
51E
  8
_________1
 62
     7
 10
-29.560300000000002
 20
248.73599999999999
 30
0.0
 11
-29.536200000000001
 21
248.77099999999999
 31
0.0
  0
LINE
  5
51F
  8
_________1
 62
     7
 10
-29.536200000000001
 20
248.77099999999999
 30
0.0
 11
-29.510999999999999
 21
248.804
 31
0.0
  0
LINE
  5
520
  8
_________1
 62
     7
 10
-29.510999999999999
 20
248.804
 30
0.0
 11
-29.488700000000001
 21
248.83799999999999
 31
0.0
  0
LINE
  5
521
  8
_________1
 62
     7
 10
-29.488700000000001
 20
248.83799999999999
 30
0.0
 11
-29.463799999999999
 21
248.86799999999999
 31
0.0
  0
LINE
  5
522
  8
_________1
 62
     7
 10
-29.463799999999999
 20
248.86799999999999
 30
0.0
 11
-29.4404
 21
248.89699999999999
 31
0.0
  0
LINE
  5
523
  8
_________1
 62
     7
 10
-29.4404
 20
248.89699999999999
 30
0.0
 11
-29.4163
 21
248.92400000000001
 31
0.0
  0
LINE
  5
524
  8
_________1
 62
     7
 10
-29.4163
 20
248.92400000000001
 30
0.0
 11
-29.392900000000001
 21
248.952
 31
0.0
  0
LINE
  5
525
  8
_________1
 62
     7
 10
-29.392900000000001
 20
248.952
 30
0.0
 11
-29.369800000000001
 21
248.977
 31
0.0
  0
LINE
  5
526
  8
_________1
 62
     7
 10
-29.369800000000001
 20
248.977
 30
0.0
 11
-29.345700000000001
 21
249.00299999999999
 31
0.0
  0
LINE
  5
527
  8
_________1
 62
     7
 10
-29.345700000000001
 20
249.00299999999999
 30
0.0
 11
-29.322600000000001
 21
249.02600000000001
 31
0.0
  0
LINE
  5
528
  8
_________1
 62
     7
 10
-29.322600000000001
 20
249.02600000000001
 30
0.0
 11
-29.299900000000001
 21
249.04900000000001
 31
0.0
  0
LINE
  5
529
  8
_________1
 62
     7
 10
-29.299900000000001
 20
249.04900000000001
 30
0.0
 11
-29.276800000000001
 21
249.072
 31
0.0
  0
LINE
  5
52A
  8
_________1
 62
     7
 10
-29.276800000000001
 20
249.072
 30
0.0
 11
-29.252700000000001
 21
249.09299999999999
 31
0.0
  0
LINE
  5
52B
  8
_________1
 62
     7
 10
-29.252700000000001
 20
249.09299999999999
 30
0.0
 11
-29.206199999999999
 21
249.13499999999999
 31
0.0
  0
LINE
  5
52C
  8
_________1
 62
     7
 10
-29.206199999999999
 20
249.13499999999999
 30
0.0
 11
-29.1586
 21
249.17400000000001
 31
0.0
  0
LINE
  5
52D
  8
_________1
 62
     7
 10
-29.1586
 20
249.17400000000001
 30
0.0
 11
-29.113099999999999
 21
249.209
 31
0.0
  0
LINE
  5
52E
  8
_________1
 62
     7
 10
-29.113099999999999
 20
249.209
 30
0.0
 11
-29.067699999999999
 21
249.245
 31
0.0
  0
LINE
  5
52F
  8
_________1
 62
     7
 10
-29.067699999999999
 20
249.245
 30
0.0
 11
-29.019400000000001
 21
249.27600000000001
 31
0.0
  0
LINE
  5
530
  8
_________1
 62
     7
 10
-29.019400000000001
 20
249.27600000000001
 30
0.0
 11
-28.971900000000002
 21
249.30600000000001
 31
0.0
  0
LINE
  5
531
  8
_________1
 62
     7
 10
-28.971900000000002
 20
249.30600000000001
 30
0.0
 11
-28.926400000000001
 21
249.334
 31
0.0
  0
LINE
  5
532
  8
_________1
 62
     7
 10
-28.926400000000001
 20
249.334
 30
0.0
 11
-28.878900000000002
 21
249.363
 31
0.0
  0
LINE
  5
533
  8
_________1
 62
     7
 10
-28.878900000000002
 20
249.363
 30
0.0
 11
-28.831299999999999
 21
249.387
 31
0.0
  0
LINE
  5
534
  8
_________1
 62
     7
 10
-28.831299999999999
 20
249.387
 30
0.0
 11
-28.783100000000001
 21
249.41200000000001
 31
0.0
  0
LINE
  5
535
  8
_________1
 62
     7
 10
-28.783100000000001
 20
249.41200000000001
 30
0.0
 11
-28.735900000000001
 21
249.435
 31
0.0
  0
LINE
  5
536
  8
_________1
 62
     7
 10
-28.735900000000001
 20
249.435
 30
0.0
 11
-28.686599999999999
 21
249.45599999999999
 31
0.0
  0
LINE
  5
537
  8
_________1
 62
     7
 10
-28.686599999999999
 20
249.45599999999999
 30
0.0
 11
-28.639399999999998
 21
249.477
 31
0.0
  0
LINE
  5
538
  8
_________1
 62
     7
 10
-28.639399999999998
 20
249.477
 30
0.0
 11
-28.589500000000001
 21
249.495
 31
0.0
  0
LINE
  5
539
  8
_________1
 62
     7
 10
-29.8566
 20
246.27099999999999
 30
0.0
 11
-29.8566
 21
246.24299999999999
 31
0.0
  0
LINE
  5
53A
  8
_________1
 62
     7
 10
-29.8566
 20
246.24299999999999
 30
0.0
 11
-29.859999999999999
 21
246.215
 31
0.0
  0
LINE
  5
53B
  8
_________1
 62
     7
 10
-29.859999999999999
 20
246.215
 30
0.0
 11
-29.863499999999998
 21
246.18600000000001
 31
0.0
  0
LINE
  5
53C
  8
_________1
 62
     7
 10
-29.863499999999998
 20
246.18600000000001
 30
0.0
 11
-29.8704
 21
246.16
 31
0.0
  0
LINE
  5
53D
  8
_________1
 62
     7
 10
-29.8704
 20
246.16
 30
0.0
 11
-29.8752
 21
246.14099999999999
 31
0.0
  0
LINE
  5
53E
  8
_________1
 62
     7
 10
-29.8752
 20
246.14099999999999
 30
0.0
 11
-29.883099999999999
 21
246.12100000000001
 31
0.0
  0
LINE
  5
53F
  8
_________1
 62
     7
 10
-29.883099999999999
 20
246.12100000000001
 30
0.0
 11
-29.890000000000001
 21
246.102
 31
0.0
  0
LINE
  5
540
  8
_________1
 62
     7
 10
-29.890000000000001
 20
246.102
 30
0.0
 11
-29.900300000000001
 21
246.07900000000001
 31
0.0
  0
LINE
  5
541
  8
_________1
 62
     7
 10
-29.900300000000001
 20
246.07900000000001
 30
0.0
 11
-29.910699999999999
 21
246.05799999999999
 31
0.0
  0
LINE
  5
542
  8
_________1
 62
     7
 10
-29.910699999999999
 20
246.05799999999999
 30
0.0
 11
-29.922000000000001
 21
246.03999999999999
 31
0.0
  0
LINE
  5
543
  8
_________1
 62
     7
 10
-29.922000000000001
 20
246.03999999999999
 30
0.0
 11
-29.933800000000002
 21
246.023
 31
0.0
  0
LINE
  5
544
  8
_________1
 62
     7
 10
-29.933800000000002
 20
246.023
 30
0.0
 11
-29.944099999999999
 21
246.00700000000001
 31
0.0
  0
LINE
  5
545
  8
_________1
 62
     7
 10
-29.944099999999999
 20
246.00700000000001
 30
0.0
 11
-29.955500000000001
 21
245.99199999999999
 31
0.0
  0
LINE
  5
546
  8
_________1
 62
     7
 10
-29.955500000000001
 20
245.99199999999999
 30
0.0
 11
-29.967500000000001
 21
245.97900000000001
 31
0.0
  0
LINE
  5
547
  8
_________1
 62
     7
 10
-29.967500000000001
 20
245.97900000000001
 30
0.0
 11
-29.977900000000002
 21
245.96600000000001
 31
0.0
  0
LINE
  5
548
  8
_________1
 62
     7
 10
-29.977900000000002
 20
245.96600000000001
 30
0.0
 11
-29.991
 21
245.95400000000001
 31
0.0
  0
LINE
  5
549
  8
_________1
 62
     7
 10
-29.991
 20
245.95400000000001
 30
0.0
 11
-30.002700000000001
 21
245.94200000000001
 31
0.0
  0
LINE
  5
54A
  8
_________1
 62
     7
 10
-30.002700000000001
 20
245.94200000000001
 30
0.0
 11
-30.013000000000002
 21
245.93100000000001
 31
0.0
  0
LINE
  5
54B
  8
_________1
 62
     7
 10
-30.013000000000002
 20
245.93100000000001
 30
0.0
 11
-30.025400000000001
 21
245.922
 31
0.0
  0
LINE
  5
54C
  8
_________1
 62
     7
 10
-30.025400000000001
 20
245.922
 30
0.0
 11
-30.0502
 21
245.90299999999999
 31
0.0
  0
LINE
  5
54D
  8
_________1
 62
     7
 10
-30.0502
 20
245.90299999999999
 30
0.0
 11
-30.072600000000001
 21
245.887
 31
0.0
  0
LINE
  5
54E
  8
_________1
 62
     7
 10
-30.072600000000001
 20
245.887
 30
0.0
 11
-30.097799999999999
 21
245.87299999999999
 31
0.0
  0
LINE
  5
54F
  8
_________1
 62
     7
 10
-30.097799999999999
 20
245.87299999999999
 30
0.0
 11
-30.122599999999998
 21
245.86000000000001
 31
0.0
  0
LINE
  5
550
  8
_________1
 62
     7
 10
-30.122599999999998
 20
245.86000000000001
 30
0.0
 11
-30.1449
 21
245.84800000000001
 31
0.0
  0
LINE
  5
551
  8
_________1
 62
     7
 10
-30.1449
 20
245.84800000000001
 30
0.0
 11
-30.170100000000001
 21
245.839
 31
0.0
  0
LINE
  5
552
  8
_________1
 62
     7
 10
-30.170100000000001
 20
245.839
 30
0.0
 11
-30.194900000000001
 21
245.83000000000001
 31
0.0
  0
LINE
  5
553
  8
_________1
 62
     7
 10
-30.194900000000001
 20
245.83000000000001
 30
0.0
 11
-30.219000000000001
 21
245.82400000000001
 31
0.0
  0
LINE
  5
554
  8
_________1
 62
     7
 10
-30.219000000000001
 20
245.82400000000001
 30
0.0
 11
-30.2438
 21
245.81800000000001
 31
0.0
  0
LINE
  5
555
  8
_________1
 62
     7
 10
-30.2438
 20
245.81800000000001
 30
0.0
 11
-30.268999999999998
 21
245.81299999999999
 31
0.0
  0
LINE
  5
556
  8
_________1
 62
     7
 10
-30.268999999999998
 20
245.81299999999999
 30
0.0
 11
-30.294799999999999
 21
245.809
 31
0.0
  0
LINE
  5
557
  8
_________1
 62
     7
 10
-30.294799999999999
 20
245.809
 30
0.0
 11
-30.319600000000001
 21
245.80799999999999
 31
0.0
  0
LINE
  5
558
  8
_________1
 62
     7
 10
-30.319600000000001
 20
245.80799999999999
 30
0.0
 11
-30.344799999999999
 21
245.80600000000001
 31
0.0
  0
LINE
  5
559
  8
_________1
 62
     7
 10
-30.344799999999999
 20
245.80600000000001
 30
0.0
 11
-30.3689
 21
245.80600000000001
 31
0.0
  0
LINE
  5
55A
  8
_________1
 62
     7
 10
-30.3689
 20
245.80600000000001
 30
0.0
 11
-30.393999999999998
 21
245.80799999999999
 31
0.0
  0
LINE
  5
55B
  8
_________1
 62
     7
 10
-30.393999999999998
 20
245.80799999999999
 30
0.0
 11
-30.418800000000001
 21
245.809
 31
0.0
  0
LINE
  5
55C
  8
_________1
 62
     7
 10
-30.418800000000001
 20
245.809
 30
0.0
 11
-30.443000000000001
 21
245.81299999999999
 31
0.0
  0
LINE
  5
55D
  8
_________1
 62
     7
 10
-30.443000000000001
 20
245.81299999999999
 30
0.0
 11
-30.4678
 21
245.81800000000001
 31
0.0
  0
LINE
  5
55E
  8
_________1
 62
     7
 10
-30.4678
 20
245.81800000000001
 30
0.0
 11
-30.491900000000001
 21
245.82400000000001
 31
0.0
  0
LINE
  5
55F
  8
_________1
 62
     7
 10
-30.491900000000001
 20
245.82400000000001
 30
0.0
 11
-30.516999999999999
 21
245.83000000000001
 31
0.0
  0
LINE
  5
560
  8
_________1
 62
     7
 10
-30.516999999999999
 20
245.83000000000001
 30
0.0
 11
-30.542200000000001
 21
245.839
 31
0.0
  0
LINE
  5
561
  8
_________1
 62
     7
 10
-30.542200000000001
 20
245.839
 30
0.0
 11
-30.566299999999998
 21
245.84800000000001
 31
0.0
  0
LINE
  5
562
  8
_________1
 62
     7
 10
-30.566299999999998
 20
245.84800000000001
 30
0.0
 11
-30.591100000000001
 21
245.86000000000001
 31
0.0
  0
LINE
  5
563
  8
_________1
 62
     7
 10
-30.591100000000001
 20
245.86000000000001
 30
0.0
 11
-30.6159
 21
245.87299999999999
 31
0.0
  0
LINE
  5
564
  8
_________1
 62
     7
 10
-30.6159
 20
245.87299999999999
 30
0.0
 11
-30.6386
 21
245.887
 31
0.0
  0
LINE
  5
565
  8
_________1
 62
     7
 10
-30.6386
 20
245.887
 30
0.0
 11
-30.663399999999999
 21
245.905
 31
0.0
  0
LINE
  5
566
  8
_________1
 62
     7
 10
-30.663399999999999
 20
245.905
 30
0.0
 11
-30.6876
 21
245.922
 31
0.0
  0
LINE
  5
567
  8
_________1
 62
     7
 10
-30.6876
 20
245.922
 30
0.0
 11
-30.698599999999999
 21
245.93299999999999
 31
0.0
  0
LINE
  5
568
  8
_________1
 62
     7
 10
-30.698599999999999
 20
245.93299999999999
 30
0.0
 11
-30.710999999999999
 21
245.94300000000001
 31
0.0
  0
LINE
  5
569
  8
_________1
 62
     7
 10
-30.710999999999999
 20
245.94300000000001
 30
0.0
 11
-30.7227
 21
245.95400000000001
 31
0.0
  0
LINE
  5
56A
  8
_________1
 62
     7
 10
-30.7227
 20
245.95400000000001
 30
0.0
 11
-30.733000000000001
 21
245.96600000000001
 31
0.0
  0
LINE
  5
56B
  8
_________1
 62
     7
 10
-30.733000000000001
 20
245.96600000000001
 30
0.0
 11
-30.746099999999998
 21
245.97900000000001
 31
0.0
  0
LINE
  5
56C
  8
_________1
 62
     7
 10
-30.746099999999998
 20
245.97900000000001
 30
0.0
 11
-30.756499999999999
 21
245.99199999999999
 31
0.0
  0
LINE
  5
56D
  8
_________1
 62
     7
 10
-30.756499999999999
 20
245.99199999999999
 30
0.0
 11
-30.7668
 21
246.00700000000001
 31
0.0
  0
LINE
  5
56E
  8
_________1
 62
     7
 10
-30.7668
 20
246.00700000000001
 30
0.0
 11
-30.779900000000001
 21
246.023
 31
0.0
  0
LINE
  5
56F
  8
_________1
 62
     7
 10
-30.779900000000001
 20
246.023
 30
0.0
 11
-30.790199999999999
 21
246.03999999999999
 31
0.0
  0
LINE
  5
570
  8
_________1
 62
     7
 10
-30.790199999999999
 20
246.03999999999999
 30
0.0
 11
-30.800599999999999
 21
246.05799999999999
 31
0.0
  0
LINE
  5
571
  8
_________1
 62
     7
 10
-30.800599999999999
 20
246.05799999999999
 30
0.0
 11
-30.8109
 21
246.07900000000001
 31
0.0
  0
LINE
  5
572
  8
_________1
 62
     7
 10
-30.8109
 20
246.07900000000001
 30
0.0
 11
-30.821899999999999
 21
246.102
 31
0.0
  0
LINE
  5
573
  8
_________1
 62
     7
 10
-30.821899999999999
 20
246.102
 30
0.0
 11
-30.828800000000001
 21
246.12
 31
0.0
  0
LINE
  5
574
  8
_________1
 62
     7
 10
-30.828800000000001
 20
246.12
 30
0.0
 11
-30.835699999999999
 21
246.13900000000001
 31
0.0
  0
LINE
  5
575
  8
_________1
 62
     7
 10
-30.835699999999999
 20
246.13900000000001
 30
0.0
 11
-30.840900000000001
 21
246.15799999999999
 31
0.0
  0
LINE
  5
576
  8
_________1
 62
     7
 10
-30.840900000000001
 20
246.15799999999999
 30
0.0
 11
-30.848800000000001
 21
246.18600000000001
 31
0.0
  0
LINE
  5
577
  8
_________1
 62
     7
 10
-30.848800000000001
 20
246.18600000000001
 30
0.0
 11
-30.8522
 21
246.215
 31
0.0
  0
LINE
  5
578
  8
_________1
 62
     7
 10
-30.8522
 20
246.215
 30
0.0
 11
-30.855699999999999
 21
246.24299999999999
 31
0.0
  0
LINE
  5
579
  8
_________1
 62
     7
 10
-30.855699999999999
 20
246.24299999999999
 30
0.0
 11
-30.855699999999999
 21
246.27099999999999
 31
0.0
  0
LINE
  5
57A
  8
_________1
 62
     7
 10
-30.855699999999999
 20
246.27099999999999
 30
0.0
 11
-30.855699999999999
 21
247.75999999999999
 31
0.0
  0
LINE
  5
57B
  8
_________1
 62
     7
 10
-32.121400000000001
 20
249.495
 30
0.0
 11
-32.070799999999998
 21
249.47499999999999
 31
0.0
  0
LINE
  5
57C
  8
_________1
 62
     7
 10
-32.070799999999998
 20
249.47499999999999
 30
0.0
 11
-32.021500000000003
 21
249.45400000000001
 31
0.0
  0
LINE
  5
57D
  8
_________1
 62
     7
 10
-32.021500000000003
 20
249.45400000000001
 30
0.0
 11
-31.969799999999999
 21
249.43299999999999
 31
0.0
  0
LINE
  5
57E
  8
_________1
 62
     7
 10
-31.969799999999999
 20
249.43299999999999
 30
0.0
 11
-31.9209
 21
249.40799999999999
 31
0.0
  0
LINE
  5
57F
  8
_________1
 62
     7
 10
-31.9209
 20
249.40799999999999
 30
0.0
 11
-31.872
 21
249.38399999999999
 31
0.0
  0
LINE
  5
580
  8
_________1
 62
     7
 10
-31.872
 20
249.38399999999999
 30
0.0
 11
-31.822700000000001
 21
249.357
 31
0.0
  0
LINE
  5
581
  8
_________1
 62
     7
 10
-31.822700000000001
 20
249.357
 30
0.0
 11
-31.7728
 21
249.327
 31
0.0
  0
LINE
  5
582
  8
_________1
 62
     7
 10
-31.7728
 20
249.327
 30
0.0
 11
-31.725200000000001
 21
249.297
 31
0.0
  0
LINE
  5
583
  8
_________1
 62
     7
 10
-31.725200000000001
 20
249.297
 30
0.0
 11
-31.676300000000001
 21
249.26599999999999
 31
0.0
  0
LINE
  5
584
  8
_________1
 62
     7
 10
-31.676300000000001
 20
249.26599999999999
 30
0.0
 11
-31.628799999999998
 21
249.232
 31
0.0
  0
LINE
  5
585
  8
_________1
 62
     7
 10
-31.628799999999998
 20
249.232
 30
0.0
 11
-31.5792
 21
249.19499999999999
 31
0.0
  0
LINE
  5
586
  8
_________1
 62
     7
 10
-31.5792
 20
249.19499999999999
 30
0.0
 11
-31.531600000000001
 21
249.15700000000001
 31
0.0
  0
LINE
  5
587
  8
_________1
 62
     7
 10
-31.531600000000001
 20
249.15700000000001
 30
0.0
 11
-31.5075
 21
249.13499999999999
 31
0.0
  0
LINE
  5
588
  8
_________1
 62
     7
 10
-31.5075
 20
249.13499999999999
 30
0.0
 11
-31.482700000000001
 21
249.11600000000001
 31
0.0
  0
LINE
  5
589
  8
_________1
 62
     7
 10
-31.482700000000001
 20
249.11600000000001
 30
0.0
 11
-31.459299999999999
 21
249.09299999999999
 31
0.0
  0
LINE
  5
58A
  8
_________1
 62
     7
 10
-31.459299999999999
 20
249.09299999999999
 30
0.0
 11
-31.435099999999998
 21
249.06999999999999
 31
0.0
  0
LINE
  5
58B
  8
_________1
 62
     7
 10
-31.435099999999998
 20
249.06999999999999
 30
0.0
 11
-31.410299999999999
 21
249.047
 31
0.0
  0
LINE
  5
58C
  8
_________1
 62
     7
 10
-31.410299999999999
 20
249.047
 30
0.0
 11
-31.385200000000001
 21
249.024
 31
0.0
  0
LINE
  5
58D
  8
_________1
 62
     7
 10
-31.385200000000001
 20
249.024
 30
0.0
 11
-31.3628
 21
248.99799999999999
 31
0.0
  0
LINE
  5
58E
  8
_________1
 62
     7
 10
-31.3628
 20
248.99799999999999
 30
0.0
 11
-31.338000000000001
 21
248.97300000000001
 31
0.0
  0
LINE
  5
58F
  8
_________1
 62
     7
 10
-31.338000000000001
 20
248.97300000000001
 30
0.0
 11
-31.312799999999999
 21
248.94499999999999
 31
0.0
  0
LINE
  5
590
  8
_________1
 62
     7
 10
-31.312799999999999
 20
248.94499999999999
 30
0.0
 11
-31.288699999999999
 21
248.917
 31
0.0
  0
LINE
  5
591
  8
_________1
 62
     7
 10
-31.288699999999999
 20
248.917
 30
0.0
 11
-31.2636
 21
248.887
 31
0.0
  0
LINE
  5
592
  8
_________1
 62
     7
 10
-31.2636
 20
248.887
 30
0.0
 11
-31.2395
 21
248.857
 31
0.0
  0
LINE
  5
593
  8
_________1
 62
     7
 10
-31.2395
 20
248.857
 30
0.0
 11
-31.214700000000001
 21
248.82300000000001
 31
0.0
  0
LINE
  5
594
  8
_________1
 62
     7
 10
-31.214700000000001
 20
248.82300000000001
 30
0.0
 11
-31.189900000000002
 21
248.78999999999999
 31
0.0
  0
LINE
  5
595
  8
_________1
 62
     7
 10
-31.189900000000002
 20
248.78999999999999
 30
0.0
 11
-31.165700000000001
 21
248.755
 31
0.0
  0
LINE
  5
596
  8
_________1
 62
     7
 10
-31.165700000000001
 20
248.755
 30
0.0
 11
-31.140599999999999
 21
248.71799999999999
 31
0.0
  0
LINE
  5
597
  8
_________1
 62
     7
 10
-31.140599999999999
 20
248.71799999999999
 30
0.0
 11
-31.114100000000001
 21
248.67500000000001
 31
0.0
  0
LINE
  5
598
  8
_________1
 62
     7
 10
-31.114100000000001
 20
248.67500000000001
 30
0.0
 11
-31.0913
 21
248.63499999999999
 31
0.0
  0
LINE
  5
599
  8
_________1
 62
     7
 10
-31.0913
 20
248.63499999999999
 30
0.0
 11
-31.064800000000002
 21
248.58699999999999
 31
0.0
  0
LINE
  5
59A
  8
_________1
 62
     7
 10
-31.064800000000002
 20
248.58699999999999
 30
0.0
 11
-31.040700000000001
 21
248.53999999999999
 31
0.0
  0
LINE
  5
59B
  8
_________1
 62
     7
 10
-31.040700000000001
 20
248.53999999999999
 30
0.0
 11
-31.022400000000001
 21
248.50299999999999
 31
0.0
  0
LINE
  5
59C
  8
_________1
 62
     7
 10
-31.022400000000001
 20
248.50299999999999
 30
0.0
 11
-31.005199999999999
 21
248.46600000000001
 31
0.0
  0
LINE
  5
59D
  8
_________1
 62
     7
 10
-31.005199999999999
 20
248.46600000000001
 30
0.0
 11
-30.989000000000001
 21
248.429
 31
0.0
  0
LINE
  5
59E
  8
_________1
 62
     7
 10
-30.989000000000001
 20
248.429
 30
0.0
 11
-30.971800000000002
 21
248.38300000000001
 31
0.0
  0
LINE
  5
59F
  8
_________1
 62
     7
 10
-30.971800000000002
 20
248.38300000000001
 30
0.0
 11
-30.9556
 21
248.339
 31
0.0
  0
LINE
  5
5A0
  8
_________1
 62
     7
 10
-30.9556
 20
248.339
 30
0.0
 11
-30.939699999999998
 21
248.29300000000001
 31
0.0
  0
LINE
  5
5A1
  8
_________1
 62
     7
 10
-30.939699999999998
 20
248.29300000000001
 30
0.0
 11
-30.925999999999998
 21
248.24700000000001
 31
0.0
  0
LINE
  5
5A2
  8
_________1
 62
     7
 10
-30.925999999999998
 20
248.24700000000001
 30
0.0
 11
-30.9132
 21
248.202
 31
0.0
  0
LINE
  5
5A3
  8
_________1
 62
     7
 10
-30.9132
 20
248.202
 30
0.0
 11
-30.902899999999999
 21
248.15600000000001
 31
0.0
  0
LINE
  5
5A4
  8
_________1
 62
     7
 10
-30.902899999999999
 20
248.15600000000001
 30
0.0
 11
-30.892499999999998
 21
248.108
 31
0.0
  0
LINE
  5
5A5
  8
_________1
 62
     7
 10
-30.892499999999998
 20
248.108
 30
0.0
 11
-30.882200000000001
 21
248.05199999999999
 31
0.0
  0
LINE
  5
5A6
  8
_________1
 62
     7
 10
-30.882200000000001
 20
248.05199999999999
 30
0.0
 11
-30.872900000000001
 21
247.994
 31
0.0
  0
LINE
  5
5A7
  8
_________1
 62
     7
 10
-30.872900000000001
 20
247.994
 30
0.0
 11
-30.866
 21
247.93600000000001
 31
0.0
  0
LINE
  5
5A8
  8
_________1
 62
     7
 10
-30.866
 20
247.93600000000001
 30
0.0
 11
-30.860499999999998
 21
247.876
 31
0.0
  0
LINE
  5
5A9
  8
_________1
 62
     7
 10
-30.860499999999998
 20
247.876
 30
0.0
 11
-30.859100000000002
 21
247.84800000000001
 31
0.0
  0
LINE
  5
5AA
  8
_________1
 62
     7
 10
-30.859100000000002
 20
247.84800000000001
 30
0.0
 11
-30.857099999999999
 21
247.81800000000001
 31
0.0
  0
LINE
  5
5AB
  8
_________1
 62
     7
 10
-30.857099999999999
 20
247.81800000000001
 30
0.0
 11
-30.857099999999999
 21
247.78800000000001
 31
0.0
  0
LINE
  5
5AC
  8
_________1
 62
     7
 10
-30.857099999999999
 20
247.78800000000001
 30
0.0
 11
-30.855699999999999
 21
247.75999999999999
 31
0.0
  0
LINE
  5
5AD
  8
_________1
 62
     7
 10
-32.664400000000001
 20
249.73400000000001
 30
0.0
 11
-32.553100000000001
 21
249.68000000000001
 31
0.0
  0
LINE
  5
5AE
  8
_________1
 62
     7
 10
-32.553100000000001
 20
249.68000000000001
 30
0.0
 11
-32.440399999999997
 21
249.62700000000001
 31
0.0
  0
LINE
  5
5AF
  8
_________1
 62
     7
 10
-32.440399999999997
 20
249.62700000000001
 30
0.0
 11
-32.328099999999999
 21
249.577
 31
0.0
  0
LINE
  5
5B0
  8
_________1
 62
     7
 10
-32.328099999999999
 20
249.577
 30
0.0
 11
-32.213700000000003
 21
249.53
 31
0.0
  0
LINE
  5
5B1
  8
_________1
 62
     7
 10
-32.213700000000003
 20
249.53
 30
0.0
 11
-32.121400000000001
 21
249.495
 31
0.0
  0
LINE
  5
5B2
  8
_________1
 62
     7
 10
-28.589500000000001
 20
249.495
 30
0.0
 11
-28.472999999999999
 21
249.541
 31
0.0
  0
LINE
  5
5B3
  8
_________1
 62
     7
 10
-28.472999999999999
 20
249.541
 30
0.0
 11
-28.358699999999999
 21
249.58799999999999
 31
0.0
  0
LINE
  5
5B4
  8
_________1
 62
     7
 10
-28.358699999999999
 20
249.58799999999999
 30
0.0
 11
-28.245699999999999
 21
249.637
 31
0.0
  0
LINE
  5
5B5
  8
_________1
 62
     7
 10
-28.245699999999999
 20
249.637
 30
0.0
 11
-28.135400000000001
 21
249.69
 31
0.0
  0
LINE
  5
5B6
  8
_________1
 62
     7
 10
-28.135400000000001
 20
249.69
 30
0.0
 11
-28.026199999999999
 21
249.745
 31
0.0
  0
LINE
  5
5B7
  8
_________1
 62
     7
 10
-28.026199999999999
 20
249.745
 30
0.0
 11
-27.917000000000002
 21
249.803
 31
0.0
  0
LINE
  5
5B8
  8
_________1
 62
     7
 10
-27.917000000000002
 20
249.803
 30
0.0
 11
-27.809200000000001
 21
249.86500000000001
 31
0.0
  0
LINE
  5
5B9
  8
_________1
 62
     7
 10
-27.809200000000001
 20
249.86500000000001
 30
0.0
 11
-27.7058
 21
249.928
 31
0.0
  0
LINE
  5
5BA
  8
_________1
 62
     7
 10
-27.7058
 20
249.928
 30
0.0
 11
-27.601400000000002
 21
249.99299999999999
 31
0.0
  0
LINE
  5
5BB
  8
_________1
 62
     7
 10
-27.601400000000002
 20
249.99299999999999
 30
0.0
 11
-27.500800000000002
 21
250.06200000000001
 31
0.0
  0
LINE
  5
5BC
  8
_________1
 62
     7
 10
-27.500800000000002
 20
250.06200000000001
 30
0.0
 11
-27.4009
 21
250.13200000000001
 31
0.0
  0
LINE
  5
5BD
  8
_________1
 62
     7
 10
-27.4009
 20
250.13200000000001
 30
0.0
 11
-27.303799999999999
 21
250.20699999999999
 31
0.0
  0
LINE
  5
5BE
  8
_________1
 62
     7
 10
-27.303799999999999
 20
250.20699999999999
 30
0.0
 11
-27.2073
 21
250.28200000000001
 31
0.0
  0
LINE
  5
5BF
  8
_________1
 62
     7
 10
-27.2073
 20
250.28200000000001
 30
0.0
 11
-27.113199999999999
 21
250.36000000000001
 31
0.0
  0
LINE
  5
5C0
  8
_________1
 62
     7
 10
-27.113199999999999
 20
250.36000000000001
 30
0.0
 11
-27.023700000000002
 21
250.43899999999999
 31
0.0
  0
LINE
  5
5C1
  8
_________1
 62
     7
 10
-27.023700000000002
 20
250.43899999999999
 30
0.0
 11
-26.934100000000001
 21
250.52199999999999
 31
0.0
  0
LINE
  5
5C2
  8
_________1
 62
     7
 10
-26.934100000000001
 20
250.52199999999999
 30
0.0
 11
-26.846900000000002
 21
250.60599999999999
 31
0.0
  0
LINE
  5
5C3
  8
_________1
 62
     7
 10
-26.846900000000002
 20
250.60599999999999
 30
0.0
 11
-26.762899999999998
 21
250.69300000000001
 31
0.0
  0
LINE
  5
5C4
  8
_________1
 62
     7
 10
-26.762899999999998
 20
250.69300000000001
 30
0.0
 11
-26.6816
 21
250.78100000000001
 31
0.0
  0
LINE
  5
5C5
  8
_________1
 62
     7
 10
-26.6816
 20
250.78100000000001
 30
0.0
 11
-26.6023
 21
250.87200000000001
 31
0.0
  0
LINE
  5
5C6
  8
_________1
 62
     7
 10
-26.6023
 20
250.87200000000001
 30
0.0
 11
-26.525200000000002
 21
250.964
 31
0.0
  0
LINE
  5
5C7
  8
_________1
 62
     7
 10
-26.525200000000002
 20
250.964
 30
0.0
 11
-26.450700000000001
 21
251.059
 31
0.0
  0
LINE
  5
5C8
  8
_________1
 62
     7
 10
-26.450700000000001
 20
251.059
 30
0.0
 11
-26.3794
 21
251.154
 31
0.0
  0
LINE
  5
5C9
  8
_________1
 62
     7
 10
-26.3794
 20
251.154
 30
0.0
 11
-26.310500000000001
 21
251.25299999999999
 31
0.0
  0
LINE
  5
5CA
  8
_________1
 62
     7
 10
-26.310500000000001
 20
251.25299999999999
 30
0.0
 11
-26.243400000000001
 21
251.351
 31
0.0
  0
LINE
  5
5CB
  8
_________1
 62
     7
 10
-26.243400000000001
 20
251.351
 30
0.0
 11
-26.179600000000001
 21
251.452
 31
0.0
  0
LINE
  5
5CC
  8
_________1
 62
     7
 10
-26.179600000000001
 20
251.452
 30
0.0
 11
-26.120000000000001
 21
251.55600000000001
 31
0.0
  0
LINE
  5
5CD
  8
_________1
 62
     7
 10
-26.120000000000001
 20
251.55600000000001
 30
0.0
 11
-26.061499999999999
 21
251.66
 31
0.0
  0
LINE
  5
5CE
  8
_________1
 62
     7
 10
-26.061499999999999
 20
251.66
 30
0.0
 11
-26.007400000000001
 21
251.76400000000001
 31
0.0
  0
LINE
  5
5CF
  8
_________1
 62
     7
 10
-26.007400000000001
 20
251.76400000000001
 30
0.0
 11
-25.954699999999999
 21
251.87100000000001
 31
0.0
  0
LINE
  5
5D0
  8
_________1
 62
     7
 10
-25.954699999999999
 20
251.87100000000001
 30
0.0
 11
-25.905000000000001
 21
251.97900000000001
 31
0.0
  0
LINE
  5
5D1
  8
_________1
 62
     7
 10
-25.905000000000001
 20
251.97900000000001
 30
0.0
 11
-25.859200000000001
 21
252.08799999999999
 31
0.0
  0
LINE
  5
5D2
  8
_________1
 62
     7
 10
-25.859200000000001
 20
252.08799999999999
 30
0.0
 11
-25.816800000000001
 21
252.19900000000001
 31
0.0
  0
LINE
  5
5D3
  8
_________1
 62
     7
 10
-25.816800000000001
 20
252.19900000000001
 30
0.0
 11
-25.776499999999999
 21
252.31
 31
0.0
  0
LINE
  5
5D4
  8
_________1
 62
     7
 10
-25.776499999999999
 20
252.31
 30
0.0
 11
-25.739699999999999
 21
252.42099999999999
 31
0.0
  0
LINE
  5
5D5
  8
_________1
 62
     7
 10
-25.739699999999999
 20
252.42099999999999
 30
0.0
 11
-25.7059
 21
252.53399999999999
 31
0.0
  0
LINE
  5
5D6
  8
_________1
 62
     7
 10
-25.7059
 20
252.53399999999999
 30
0.0
 11
-25.675599999999999
 21
252.648
 31
0.0
  0
LINE
  5
5D7
  8
_________1
 62
     7
 10
-25.675599999999999
 20
252.648
 30
0.0
 11
-25.647300000000001
 21
252.76300000000001
 31
0.0
  0
LINE
  5
5D8
  8
_________1
 62
     7
 10
-25.647300000000001
 20
252.76300000000001
 30
0.0
 11
-25.623200000000001
 21
252.87700000000001
 31
0.0
  0
LINE
  5
5D9
  8
_________1
 62
     7
 10
-25.623200000000001
 20
252.87700000000001
 30
0.0
 11
-25.601900000000001
 21
252.99299999999999
 31
0.0
  0
LINE
  5
5DA
  8
_________1
 62
     7
 10
-25.601900000000001
 20
252.99299999999999
 30
0.0
 11
-25.584599999999998
 21
253.11000000000001
 31
0.0
  0
LINE
  5
5DB
  8
_________1
 62
     7
 10
-25.584599999999998
 20
253.11000000000001
 30
0.0
 11
-25.5688
 21
253.226
 31
0.0
  0
LINE
  5
5DC
  8
_________1
 62
     7
 10
-25.5688
 20
253.226
 30
0.0
 11
-25.5578
 21
253.34200000000001
 31
0.0
  0
LINE
  5
5DD
  8
_________1
 62
     7
 10
-25.5578
 20
253.34200000000001
 30
0.0
 11
-25.549199999999999
 21
253.46000000000001
 31
0.0
  0
LINE
  5
5DE
  8
_________1
 62
     7
 10
-25.549199999999999
 20
253.46000000000001
 30
0.0
 11
-25.544
 21
253.57599999999999
 31
0.0
  0
LINE
  5
5DF
  8
_________1
 62
     7
 10
-25.544
 20
253.57599999999999
 30
0.0
 11
-25.542300000000001
 21
253.69399999999999
 31
0.0
  0
LINE
  5
5E0
  8
_________1
 62
     7
 10
-25.542300000000001
 20
253.69399999999999
 30
0.0
 11
-25.544
 21
253.81100000000001
 31
0.0
  0
LINE
  5
5E1
  8
_________1
 62
     7
 10
-25.544
 20
253.81100000000001
 30
0.0
 11
-25.549199999999999
 21
253.929
 31
0.0
  0
LINE
  5
5E2
  8
_________1
 62
     7
 10
-25.549199999999999
 20
253.929
 30
0.0
 11
-25.556100000000001
 21
254.04499999999999
 31
0.0
  0
LINE
  5
5E3
  8
_________1
 62
     7
 10
-25.556100000000001
 20
254.04499999999999
 30
0.0
 11
-25.566400000000002
 21
254.16300000000001
 31
0.0
  0
LINE
  5
5E4
  8
_________1
 62
     7
 10
-25.566400000000002
 20
254.16300000000001
 30
0.0
 11
-25.581199999999999
 21
254.279
 31
0.0
  0
LINE
  5
5E5
  8
_________1
 62
     7
 10
-25.581199999999999
 20
254.279
 30
0.0
 11
-25.598400000000002
 21
254.39599999999999
 31
0.0
  0
LINE
  5
5E6
  8
_________1
 62
     7
 10
-25.598400000000002
 20
254.39599999999999
 30
0.0
 11
-25.619800000000001
 21
254.50999999999999
 31
0.0
  0
LINE
  5
5E7
  8
_________1
 62
     7
 10
-25.619800000000001
 20
254.50999999999999
 30
0.0
 11
-25.643899999999999
 21
254.62700000000001
 31
0.0
  0
LINE
  5
5E8
  8
_________1
 62
     7
 10
-25.643899999999999
 20
254.62700000000001
 30
0.0
 11
-25.6708
 21
254.74100000000001
 31
0.0
  0
LINE
  5
5E9
  8
_________1
 62
     7
 10
-25.6708
 20
254.74100000000001
 30
0.0
 11
-25.700700000000001
 21
254.85400000000001
 31
0.0
  0
LINE
  5
5EA
  8
_________1
 62
     7
 10
-25.700700000000001
 20
254.85400000000001
 30
0.0
 11
-25.734200000000001
 21
254.96600000000001
 31
0.0
  0
LINE
  5
5EB
  8
_________1
 62
     7
 10
-25.734200000000001
 20
254.96600000000001
 30
0.0
 11
-25.7714
 21
255.07900000000001
 31
0.0
  0
LINE
  5
5EC
  8
_________1
 62
     7
 10
-25.7714
 20
255.07900000000001
 30
0.0
 11
-25.809999999999999
 21
255.19
 31
0.0
  0
LINE
  5
5ED
  8
_________1
 62
     7
 10
-25.809999999999999
 20
255.19
 30
0.0
 11
-25.8523
 21
255.30099999999999
 31
0.0
  0
LINE
  5
5EE
  8
_________1
 62
     7
 10
-25.8523
 20
255.30099999999999
 30
0.0
 11
-25.898199999999999
 21
255.41
 31
0.0
  0
LINE
  5
5EF
  8
_________1
 62
     7
 10
-25.898199999999999
 20
255.41
 30
0.0
 11
-25.947099999999999
 21
255.518
 31
0.0
  0
LINE
  5
5F0
  8
_________1
 62
     7
 10
-25.947099999999999
 20
255.518
 30
0.0
 11
-25.998699999999999
 21
255.625
 31
0.0
  0
LINE
  5
5F1
  8
_________1
 62
     7
 10
-25.998699999999999
 20
255.625
 30
0.0
 11
-26.0532
 21
255.73099999999999
 31
0.0
  0
LINE
  5
5F2
  8
_________1
 62
     7
 10
-26.0532
 20
255.73099999999999
 30
0.0
 11
-26.109000000000002
 21
255.83500000000001
 31
0.0
  0
LINE
  5
5F3
  8
_________1
 62
     7
 10
-26.109000000000002
 20
255.83500000000001
 30
0.0
 11
-26.170999999999999
 21
255.93700000000001
 31
0.0
  0
LINE
  5
5F4
  8
_________1
 62
     7
 10
-26.170999999999999
 20
255.93700000000001
 30
0.0
 11
-26.233000000000001
 21
256.03899999999999
 31
0.0
  0
LINE
  5
5F5
  8
_________1
 62
     7
 10
-26.233000000000001
 20
256.03899999999999
 30
0.0
 11
-26.299199999999999
 21
256.13799999999998
 31
0.0
  0
LINE
  5
5F6
  8
_________1
 62
     7
 10
-26.299199999999999
 20
256.13799999999998
 30
0.0
 11
-26.368099999999998
 21
256.23599999999999
 31
0.0
  0
LINE
  5
5F7
  8
_________1
 62
     7
 10
-26.368099999999998
 20
256.23599999999999
 30
0.0
 11
-26.439
 21
256.334
 31
0.0
  0
LINE
  5
5F8
  8
_________1
 62
     7
 10
-26.439
 20
256.334
 30
0.0
 11
-26.512799999999999
 21
256.42700000000002
 31
0.0
  0
LINE
  5
5F9
  8
_________1
 62
     7
 10
-26.512799999999999
 20
256.42700000000002
 30
0.0
 11
-26.590599999999998
 21
256.51999999999998
 31
0.0
  0
LINE
  5
5FA
  8
_________1
 62
     7
 10
-26.590599999999998
 20
256.51999999999998
 30
0.0
 11
-26.6678
 21
256.61000000000001
 31
0.0
  0
LINE
  5
5FB
  8
_________1
 62
     7
 10
-26.6678
 20
256.61000000000001
 30
0.0
 11
-26.750499999999999
 21
256.69999999999999
 31
0.0
  0
LINE
  5
5FC
  8
_________1
 62
     7
 10
-26.750499999999999
 20
256.69999999999999
 30
0.0
 11
-26.833200000000001
 21
256.786
 31
0.0
  0
LINE
  5
5FD
  8
_________1
 62
     7
 10
-26.833200000000001
 20
256.786
 30
0.0
 11
-26.9193
 21
256.87099999999998
 31
0.0
  0
LINE
  5
5FE
  8
_________1
 62
     7
 10
-26.9193
 20
256.87099999999998
 30
0.0
 11
-27.008199999999999
 21
256.95299999999997
 31
0.0
  0
LINE
  5
5FF
  8
_________1
 62
     7
 10
-27.008199999999999
 20
256.95299999999997
 30
0.0
 11
-27.099499999999999
 21
257.03500000000003
 31
0.0
  0
LINE
  5
600
  8
_________1
 62
     7
 10
-27.099499999999999
 20
257.03500000000003
 30
0.0
 11
-27.192499999999999
 21
257.11200000000002
 31
0.0
  0
LINE
  5
601
  8
_________1
 62
     7
 10
-27.192499999999999
 20
257.11200000000002
 30
0.0
 11
-27.2879
 21
257.18799999999999
 31
0.0
  0
LINE
  5
602
  8
_________1
 62
     7
 10
-27.2879
 20
257.18799999999999
 30
0.0
 11
-27.384399999999999
 21
257.262
 31
0.0
  0
LINE
  5
603
  8
_________1
 62
     7
 10
-27.384399999999999
 20
257.262
 30
0.0
 11
-27.483599999999999
 21
257.334
 31
0.0
  0
LINE
  5
604
  8
_________1
 62
     7
 10
-27.483599999999999
 20
257.334
 30
0.0
 11
-27.5852
 21
257.40300000000002
 31
0.0
  0
LINE
  5
605
  8
_________1
 62
     7
 10
-27.5852
 20
257.40300000000002
 30
0.0
 11
-27.6875
 21
257.46800000000002
 31
0.0
  0
LINE
  5
606
  8
_________1
 62
     7
 10
-27.6875
 20
257.46800000000002
 30
0.0
 11
-27.793700000000001
 21
257.53100000000001
 31
0.0
  0
LINE
  5
607
  8
_________1
 62
     7
 10
-27.793700000000001
 20
257.53100000000001
 30
0.0
 11
-27.898700000000002
 21
257.59300000000002
 31
0.0
  0
LINE
  5
608
  8
_________1
 62
     7
 10
-27.898700000000002
 20
257.59300000000002
 30
0.0
 11
-28.009
 21
257.65100000000001
 31
0.0
  0
LINE
  5
609
  8
_________1
 62
     7
 10
-28.009
 20
257.65100000000001
 30
0.0
 11
-28.1175
 21
257.70800000000003
 31
0.0
  0
LINE
  5
60A
  8
_________1
 62
     7
 10
-28.1175
 20
257.70800000000003
 30
0.0
 11
-28.228400000000001
 21
257.76099999999991
 31
0.0
  0
LINE
  5
60B
  8
_________1
 62
     7
 10
-28.228400000000001
 20
257.76099999999991
 30
0.0
 11
-28.3414
 21
257.81200000000001
 31
0.0
  0
LINE
  5
60C
  8
_________1
 62
     7
 10
-28.3414
 20
257.81200000000001
 30
0.0
 11
-28.4558
 21
257.85900000000009
 31
0.0
  0
LINE
  5
60D
  8
_________1
 62
     7
 10
-28.4558
 20
257.85900000000009
 30
0.0
 11
-28.570499999999999
 21
257.90499999999997
 31
0.0
  0
LINE
  5
60E
  8
_________1
 62
     7
 10
-28.570499999999999
 20
257.90499999999997
 30
0.0
 11
-28.686599999999999
 21
257.94499999999999
 31
0.0
  0
LINE
  5
60F
  8
_________1
 62
     7
 10
-28.686599999999999
 20
257.94499999999999
 30
0.0
 11
-28.8048
 21
257.98599999999999
 31
0.0
  0
LINE
  5
610
  8
_________1
 62
     7
 10
-28.8048
 20
257.98599999999999
 30
0.0
 11
-28.922999999999998
 21
258.02100000000002
 31
0.0
  0
LINE
  5
611
  8
_________1
 62
     7
 10
-28.922999999999998
 20
258.02100000000002
 30
0.0
 11
-29.0425
 21
258.05500000000001
 31
0.0
  0
LINE
  5
612
  8
_________1
 62
     7
 10
-29.0425
 20
258.05500000000001
 30
0.0
 11
-29.164100000000001
 21
258.08600000000001
 31
0.0
  0
LINE
  5
613
  8
_________1
 62
     7
 10
-29.164100000000001
 20
258.08600000000001
 30
0.0
 11
-29.285399999999999
 21
258.113
 31
0.0
  0
LINE
  5
614
  8
_________1
 62
     7
 10
-29.285399999999999
 20
258.113
 30
0.0
 11
-29.406700000000001
 21
258.137
 31
0.0
  0
LINE
  5
615
  8
_________1
 62
     7
 10
-29.406700000000001
 20
258.137
 30
0.0
 11
-29.5307
 21
258.16000000000003
 31
0.0
  0
LINE
  5
616
  8
_________1
 62
     7
 10
-29.5307
 20
258.16000000000003
 30
0.0
 11
-29.654
 21
258.178
 31
0.0
  0
LINE
  5
617
  8
_________1
 62
     7
 10
-29.654
 20
258.178
 30
0.0
 11
-29.7774
 21
258.19400000000002
 31
0.0
  0
LINE
  5
618
  8
_________1
 62
     7
 10
-29.7774
 20
258.19400000000002
 30
0.0
 11
-29.900300000000001
 21
258.20600000000002
 31
0.0
  0
LINE
  5
619
  8
_________1
 62
     7
 10
-29.900300000000001
 20
258.20600000000002
 30
0.0
 11
-30.025400000000001
 21
258.21699999999998
 31
0.0
  0
LINE
  5
61A
  8
_________1
 62
     7
 10
-30.025400000000001
 20
258.21699999999998
 30
0.0
 11
-30.150099999999998
 21
258.22199999999998
 31
0.0
  0
LINE
  5
61B
  8
_________1
 62
     7
 10
-30.150099999999998
 20
258.22199999999998
 30
0.0
 11
-30.274100000000001
 21
258.22500000000002
 31
0.0
  0
LINE
  5
61C
  8
_________1
 62
     7
 10
-30.274100000000001
 20
258.22500000000002
 30
0.0
 11
-30.398900000000001
 21
258.22699999999998
 31
0.0
  0
LINE
  5
61D
  8
_________1
 62
     7
 10
-30.398900000000001
 20
258.22699999999998
 30
0.0
 11
-30.523900000000001
 21
258.22399999999999
 31
0.0
  0
LINE
  5
61E
  8
_________1
 62
     7
 10
-30.523900000000001
 20
258.22399999999999
 30
0.0
 11
-30.649000000000001
 21
258.21800000000002
 31
0.0
  0
LINE
  5
61F
  8
_________1
 62
     7
 10
-30.649000000000001
 20
258.21800000000002
 30
0.0
 11
-30.7744
 21
258.20999999999998
 31
0.0
  0
LINE
  5
620
  8
_________1
 62
     7
 10
-30.7744
 20
258.20999999999998
 30
0.0
 11
-30.8977
 21
258.197
 31
0.0
  0
LINE
  5
621
  8
_________1
 62
     7
 10
-30.8977
 20
258.197
 30
0.0
 11
-31.021000000000001
 21
258.18299999999999
 31
0.0
  0
LINE
  5
622
  8
_________1
 62
     7
 10
-31.021000000000001
 20
258.18299999999999
 30
0.0
 11
-31.143999999999998
 21
258.166
 31
0.0
  0
LINE
  5
623
  8
_________1
 62
     7
 10
-31.143999999999998
 20
258.166
 30
0.0
 11
-31.266999999999999
 21
258.14400000000001
 31
0.0
  0
LINE
  5
624
  8
_________1
 62
     7
 10
-31.266999999999999
 20
258.14400000000001
 30
0.0
 11
-31.3904
 21
258.12200000000001
 31
0.0
  0
LINE
  5
625
  8
_________1
 62
     7
 10
-31.3904
 20
258.12200000000001
 30
0.0
 11
-31.512699999999999
 21
258.09500000000003
 31
0.0
  0
LINE
  5
626
  8
_________1
 62
     7
 10
-31.512699999999999
 20
258.09500000000003
 30
0.0
 11
-31.632200000000001
 21
258.065
 31
0.0
  0
LINE
  5
627
  8
_________1
 62
     7
 10
-31.632200000000001
 20
258.065
 30
0.0
 11
-31.752099999999999
 21
258.03199999999998
 31
0.0
  0
LINE
  5
628
  8
_________1
 62
     7
 10
-31.752099999999999
 20
258.03199999999998
 30
0.0
 11
-31.872
 21
257.99599999999998
 31
0.0
  0
LINE
  5
629
  8
_________1
 62
     7
 10
-31.872
 20
257.99599999999998
 30
0.0
 11
-31.989799999999999
 21
257.95699999999999
 31
0.0
  0
LINE
  5
62A
  8
_________1
 62
     7
 10
-31.989799999999999
 20
257.95699999999999
 30
0.0
 11
-32.106299999999997
 21
257.91699999999997
 31
0.0
  0
LINE
  5
62B
  8
_________1
 62
     7
 10
-32.106299999999997
 20
257.91699999999997
 30
0.0
 11
-32.2224
 21
257.87299999999999
 31
0.0
  0
LINE
  5
62C
  8
_________1
 62
     7
 10
-32.2224
 20
257.87299999999999
 30
0.0
 11
-32.3371
 21
257.82600000000002
 31
0.0
  0
LINE
  5
62D
  8
_________1
 62
     7
 10
-32.3371
 20
257.82600000000002
 30
0.0
 11
-32.4497
 21
257.77600000000001
 31
0.0
  0
LINE
  5
62E
  8
_________1
 62
     7
 10
-32.4497
 20
257.77600000000001
 30
0.0
 11
-32.561
 21
257.72300000000001
 31
0.0
  0
LINE
  5
62F
  8
_________1
 62
     7
 10
-32.561
 20
257.72300000000001
 30
0.0
 11
-32.671300000000002
 21
257.6690000000001
 31
0.0
  0
LINE
  5
630
  8
_________1
 62
     7
 10
-32.671300000000002
 20
257.6690000000001
 30
0.0
 11
-32.780500000000004
 21
257.61099999999999
 31
0.0
  0
LINE
  5
631
  8
_________1
 62
     7
 10
-32.780500000000004
 20
257.61099999999999
 30
0.0
 11
-32.886200000000002
 21
257.55099999999999
 31
0.0
  0
LINE
  5
632
  8
_________1
 62
     7
 10
-32.886200000000002
 20
257.55099999999999
 30
0.0
 11
-32.9923
 21
257.48700000000002
 31
0.0
  0
LINE
  5
633
  8
_________1
 62
     7
 10
-32.9923
 20
257.48700000000002
 30
0.0
 11
-33.095700000000001
 21
257.42200000000003
 31
0.0
  0
LINE
  5
634
  8
_________1
 62
     7
 10
-33.095700000000001
 20
257.42200000000003
 30
0.0
 11
-33.198399999999999
 21
257.35500000000002
 31
0.0
  0
LINE
  5
635
  8
_________1
 62
     7
 10
-33.198399999999999
 20
257.35500000000002
 30
0.0
 11
-33.297199999999997
 21
257.28500000000003
 31
0.0
  0
LINE
  5
636
  8
_________1
 62
     7
 10
-33.297199999999997
 20
257.28500000000003
 30
0.0
 11
-33.395400000000002
 21
257.21100000000001
 31
0.0
  0
LINE
  5
637
  8
_________1
 62
     7
 10
-33.395400000000002
 20
257.21100000000001
 30
0.0
 11
-33.491199999999999
 21
257.13499999999999
 31
0.0
  0
LINE
  5
638
  8
_________1
 62
     7
 10
-33.491199999999999
 20
257.13499999999999
 30
0.0
 11
-33.58420000000001
 21
257.05700000000002
 31
0.0
  0
LINE
  5
639
  8
_________1
 62
     7
 10
-33.58420000000001
 20
257.05700000000002
 30
0.0
 11
-33.675199999999997
 21
256.97800000000001
 31
0.0
  0
LINE
  5
63A
  8
_________1
 62
     7
 10
-33.675199999999997
 20
256.97800000000001
 30
0.0
 11
-33.765799999999999
 21
256.89699999999999
 31
0.0
  0
LINE
  5
63B
  8
_________1
 62
     7
 10
-33.765799999999999
 20
256.89699999999999
 30
0.0
 11
-33.851900000000001
 21
256.81299999999999
 31
0.0
  0
LINE
  5
63C
  8
_________1
 62
     7
 10
-33.851900000000001
 20
256.81299999999999
 30
0.0
 11
-33.936300000000003
 21
256.726
 31
0.0
  0
LINE
  5
63D
  8
_________1
 62
     7
 10
-33.936300000000003
 20
256.726
 30
0.0
 11
-34.018999999999998
 21
256.63799999999998
 31
0.0
  0
LINE
  5
63E
  8
_________1
 62
     7
 10
-34.018999999999998
 20
256.63799999999998
 30
0.0
 11
-34.098199999999999
 21
256.548
 31
0.0
  0
LINE
  5
63F
  8
_________1
 62
     7
 10
-34.098199999999999
 20
256.548
 30
0.0
 11
-34.175699999999999
 21
256.45499999999998
 31
0.0
  0
LINE
  5
640
  8
_________1
 62
     7
 10
-34.175699999999999
 20
256.45499999999998
 30
0.0
 11
-34.2498
 21
256.36200000000002
 31
0.0
  0
LINE
  5
641
  8
_________1
 62
     7
 10
-34.2498
 20
256.36200000000002
 30
0.0
 11
-34.322200000000002
 21
256.26499999999999
 31
0.0
  0
LINE
  5
642
  8
_________1
 62
     7
 10
-34.322200000000002
 20
256.26499999999999
 30
0.0
 11
-34.392800000000001
 21
256.16800000000001
 31
0.0
  0
LINE
  5
643
  8
_________1
 62
     7
 10
-34.392800000000001
 20
256.16800000000001
 30
0.0
 11
-34.460000000000001
 21
256.06900000000002
 31
0.0
  0
LINE
  5
644
  8
_________1
 62
     7
 10
-34.460000000000001
 20
256.06900000000002
 30
0.0
 11
-34.5227
 21
255.96899999999999
 31
0.0
  0
LINE
  5
645
  8
_________1
 62
     7
 10
-34.5227
 20
255.96899999999999
 30
0.0
 11
-34.584699999999998
 21
255.86699999999999
 31
0.0
  0
LINE
  5
646
  8
_________1
 62
     7
 10
-34.584699999999998
 20
255.86699999999999
 30
0.0
 11
-34.642499999999998
 21
255.76300000000001
 31
0.0
  0
LINE
  5
647
  8
_________1
 62
     7
 10
-34.642499999999998
 20
255.76300000000001
 30
0.0
 11
-34.697699999999998
 21
255.65700000000001
 31
0.0
  0
LINE
  5
648
  8
_________1
 62
     7
 10
-34.697699999999998
 20
255.65700000000001
 30
0.0
 11
-34.75
 21
255.55099999999999
 31
0.0
  0
LINE
  5
649
  8
_________1
 62
     7
 10
-34.75
 20
255.55099999999999
 30
0.0
 11
-34.799300000000002
 21
255.44200000000001
 31
0.0
  0
LINE
  5
64A
  8
_________1
 62
     7
 10
-34.799300000000002
 20
255.44200000000001
 30
0.0
 11
-34.845799999999997
 21
255.33500000000001
 31
0.0
  0
LINE
  5
64B
  8
_________1
 62
     7
 10
-34.845799999999997
 20
255.33500000000001
 30
0.0
 11
-34.889899999999997
 21
255.22399999999999
 31
0.0
  0
LINE
  5
64C
  8
_________1
 62
     7
 10
-34.889899999999997
 20
255.22399999999999
 30
0.0
 11
-34.930199999999999
 21
255.11199999999999
 31
0.0
  0
LINE
  5
64D
  8
_________1
 62
     7
 10
-34.930199999999999
 20
255.11199999999999
 30
0.0
 11
-34.967100000000002
 21
255.00200000000001
 31
0.0
  0
LINE
  5
64E
  8
_________1
 62
     7
 10
-34.967100000000002
 20
255.00200000000001
 30
0.0
 11
-35.002600000000001
 21
254.88900000000001
 31
0.0
  0
LINE
  5
64F
  8
_________1
 62
     7
 10
-35.002600000000001
 20
254.88900000000001
 30
0.0
 11
-35.031799999999997
 21
254.774
 31
0.0
  0
LINE
  5
650
  8
_________1
 62
     7
 10
-35.031799999999997
 20
254.774
 30
0.0
 11
-35.060099999999998
 21
254.66
 31
0.0
  0
LINE
  5
651
  8
_________1
 62
     7
 10
-35.060099999999998
 20
254.66
 30
0.0
 11
-35.0852
 21
254.54499999999999
 31
0.0
  0
LINE
  5
652
  8
_________1
 62
     7
 10
-35.0852
 20
254.54499999999999
 30
0.0
 11
-35.107599999999998
 21
254.429
 31
0.0
  0
LINE
  5
653
  8
_________1
 62
     7
 10
-35.107599999999998
 20
254.429
 30
0.0
 11
-35.125599999999999
 21
254.31399999999999
 31
0.0
  0
LINE
  5
654
  8
_________1
 62
     7
 10
-35.125599999999999
 20
254.31399999999999
 30
0.0
 11
-35.141399999999997
 21
254.197
 31
0.0
  0
LINE
  5
655
  8
_________1
 62
     7
 10
-35.141399999999997
 20
254.197
 30
0.0
 11
-35.151699999999998
 21
254.08000000000001
 31
0.0
  0
LINE
  5
656
  8
_________1
 62
     7
 10
-35.151699999999998
 20
254.08000000000001
 30
0.0
 11
-35.161000000000001
 21
253.964
 31
0.0
  0
LINE
  5
657
  8
_________1
 62
     7
 10
-35.161000000000001
 20
253.964
 30
0.0
 11
-35.167900000000003
 21
253.846
 31
0.0
  0
LINE
  5
658
  8
_________1
 62
     7
 10
-35.167900000000003
 20
253.846
 30
0.0
 11
-35.169699999999999
 21
253.72999999999999
 31
0.0
  0
LINE
  5
659
  8
_________1
 62
     7
 10
-35.169699999999999
 20
253.72999999999999
 30
0.0
 11
-35.167900000000003
 21
253.61199999999999
 31
0.0
  0
LINE
  5
65A
  8
_________1
 62
     7
 10
-35.167900000000003
 20
253.61199999999999
 30
0.0
 11
-35.164499999999997
 21
253.49600000000001
 31
0.0
  0
LINE
  5
65B
  8
_________1
 62
     7
 10
-35.164499999999997
 20
253.49600000000001
 30
0.0
 11
-35.157600000000002
 21
253.37700000000001
 31
0.0
  0
LINE
  5
65C
  8
_________1
 62
     7
 10
-35.157600000000002
 20
253.37700000000001
 30
0.0
 11
-35.1462
 21
253.261
 31
0.0
  0
LINE
  5
65D
  8
_________1
 62
     7
 10
-35.1462
 20
253.261
 30
0.0
 11
-35.132399999999997
 21
253.14500000000001
 31
0.0
  0
LINE
  5
65E
  8
_________1
 62
     7
 10
-35.132399999999997
 20
253.14500000000001
 30
0.0
 11
-35.115200000000002
 21
253.029
 31
0.0
  0
LINE
  5
65F
  8
_________1
 62
     7
 10
-35.115200000000002
 20
253.029
 30
0.0
 11
-35.095599999999997
 21
252.91200000000001
 31
0.0
  0
LINE
  5
660
  8
_________1
 62
     7
 10
-35.095599999999997
 20
252.91200000000001
 30
0.0
 11
-35.072499999999998
 21
252.79599999999999
 31
0.0
  0
LINE
  5
661
  8
_________1
 62
     7
 10
-35.072499999999998
 20
252.79599999999999
 30
0.0
 11
-35.044899999999998
 21
252.68100000000001
 31
0.0
  0
LINE
  5
662
  8
_________1
 62
     7
 10
-35.044899999999998
 20
252.68100000000001
 30
0.0
 11
-35.016300000000001
 21
252.56899999999999
 31
0.0
  0
LINE
  5
663
  8
_________1
 62
     7
 10
-35.016300000000001
 20
252.56899999999999
 30
0.0
 11
-34.982900000000001
 21
252.45599999999999
 31
0.0
  0
LINE
  5
664
  8
_________1
 62
     7
 10
-34.982900000000001
 20
252.45599999999999
 30
0.0
 11
-34.947400000000002
 21
252.34299999999999
 31
0.0
  0
LINE
  5
665
  8
_________1
 62
     7
 10
-34.947400000000002
 20
252.34299999999999
 30
0.0
 11
-34.9071
 21
252.232
 31
0.0
  0
LINE
  5
666
  8
_________1
 62
     7
 10
-34.9071
 20
252.232
 30
0.0
 11
-34.864800000000002
 21
252.12100000000001
 31
0.0
  0
LINE
  5
667
  8
_________1
 62
     7
 10
-34.864800000000002
 20
252.12100000000001
 30
0.0
 11
-34.820999999999998
 21
252.012
 31
0.0
  0
LINE
  5
668
  8
_________1
 62
     7
 10
-34.820999999999998
 20
252.012
 30
0.0
 11
-34.771700000000003
 21
251.90299999999999
 31
0.0
  0
LINE
  5
669
  8
_________1
 62
     7
 10
-34.771700000000003
 20
251.90299999999999
 30
0.0
 11
-34.720100000000002
 21
251.797
 31
0.0
  0
LINE
  5
66A
  8
_________1
 62
     7
 10
-34.720100000000002
 20
251.797
 30
0.0
 11
-34.667400000000001
 21
251.691
 31
0.0
  0
LINE
  5
66B
  8
_________1
 62
     7
 10
-34.667400000000001
 20
251.691
 30
0.0
 11
-34.608800000000002
 21
251.58600000000001
 31
0.0
  0
LINE
  5
66C
  8
_________1
 62
     7
 10
-34.608800000000002
 20
251.58600000000001
 30
0.0
 11
-34.549500000000002
 21
251.48400000000001
 31
0.0
  0
LINE
  5
66D
  8
_________1
 62
     7
 10
-34.549500000000002
 20
251.48400000000001
 30
0.0
 11
-34.487499999999997
 21
251.381
 31
0.0
  0
LINE
  5
66E
  8
_________1
 62
     7
 10
-34.487499999999997
 20
251.381
 30
0.0
 11
-34.422800000000002
 21
251.28299999999999
 31
0.0
  0
LINE
  5
66F
  8
_________1
 62
     7
 10
-34.422800000000002
 20
251.28299999999999
 30
0.0
 11
-34.3538
 21
251.184
 31
0.0
  0
LINE
  5
670
  8
_________1
 62
     7
 10
-34.3538
 20
251.184
 30
0.0
 11
-34.2836
 21
251.08699999999999
 31
0.0
  0
LINE
  5
671
  8
_________1
 62
     7
 10
-34.2836
 20
251.08699999999999
 30
0.0
 11
-34.20920000000001
 21
250.99199999999999
 31
0.0
  0
LINE
  5
672
  8
_________1
 62
     7
 10
-34.20920000000001
 20
250.99199999999999
 30
0.0
 11
-34.133400000000002
 21
250.899
 31
0.0
  0
LINE
  5
673
  8
_________1
 62
     7
 10
-34.133400000000002
 20
250.899
 30
0.0
 11
-34.054099999999998
 21
250.809
 31
0.0
  0
LINE
  5
674
  8
_________1
 62
     7
 10
-34.054099999999998
 20
250.809
 30
0.0
 11
-33.973500000000001
 21
250.71899999999999
 31
0.0
  0
LINE
  5
675
  8
_________1
 62
     7
 10
-33.973500000000001
 20
250.71899999999999
 30
0.0
 11
-33.890799999999999
 21
250.63300000000001
 31
0.0
  0
LINE
  5
676
  8
_________1
 62
     7
 10
-33.890799999999999
 20
250.63300000000001
 30
0.0
 11
-33.804699999999997
 21
250.54599999999999
 31
0.0
  0
LINE
  5
677
  8
_________1
 62
     7
 10
-33.804699999999997
 20
250.54599999999999
 30
0.0
 11
-33.716500000000011
 21
250.46299999999999
 31
0.0
  0
LINE
  5
678
  8
_________1
 62
     7
 10
-33.716500000000011
 20
250.46299999999999
 30
0.0
 11
-33.624499999999998
 21
250.38300000000001
 31
0.0
  0
LINE
  5
679
  8
_________1
 62
     7
 10
-33.624499999999998
 20
250.38300000000001
 30
0.0
 11
-33.533200000000001
 21
250.30500000000001
 31
0.0
  0
LINE
  5
67A
  8
_________1
 62
     7
 10
-33.533200000000001
 20
250.30500000000001
 30
0.0
 11
-33.437399999999997
 21
250.22900000000001
 31
0.0
  0
LINE
  5
67B
  8
_________1
 62
     7
 10
-33.437399999999997
 20
250.22900000000001
 30
0.0
 11
-33.341000000000001
 21
250.155
 31
0.0
  0
LINE
  5
67C
  8
_________1
 62
     7
 10
-33.341000000000001
 20
250.155
 30
0.0
 11
-33.242100000000001
 21
250.083
 31
0.0
  0
LINE
  5
67D
  8
_________1
 62
     7
 10
-33.242100000000001
 20
250.083
 30
0.0
 11
-33.139800000000001
 21
250.01499999999999
 31
0.0
  0
LINE
  5
67E
  8
_________1
 62
     7
 10
-33.139800000000001
 20
250.01499999999999
 30
0.0
 11
-33.037799999999997
 21
249.947
 31
0.0
  0
LINE
  5
67F
  8
_________1
 62
     7
 10
-33.037799999999997
 20
249.947
 30
0.0
 11
-32.933799999999998
 21
249.88399999999999
 31
0.0
  0
LINE
  5
680
  8
_________1
 62
     7
 10
-32.933799999999998
 20
249.88399999999999
 30
0.0
 11
-32.82630000000001
 21
249.82300000000001
 31
0.0
  0
LINE
  5
681
  8
_________1
 62
     7
 10
-32.82630000000001
 20
249.82300000000001
 30
0.0
 11
-32.719499999999996
 21
249.762
 31
0.0
  0
LINE
  5
682
  8
_________1
 62
     7
 10
-32.719499999999996
 20
249.762
 30
0.0
 11
-32.664400000000001
 21
249.73400000000001
 31
0.0
  0
ARC
  5
683
  8
_________1
 62
     7
 10
-30.079561000000002
 20
256.41401100000002
 30
0.0
 40
4.809647
 50
19.497437000000001
 51
70.758954000000003
  0
ARC
  5
684
  8
_________1
 62
     7
 10
-30.342625000000002
 20
255.63292300000001
 30
0.0
 40
5.6338019999999993
 50
70.850820999999996
 51
121.01472800000001
  0
ARC
  5
685
  8
_________1
 62
     7
 10
-30.710355
 20
256.490951
 30
0.0
 40
4.7106769999999987
 50
122.55898999999999
 51
161.06809200000001
  0
ARC
  5
686
  8
_________1
 62
     7
 10
59.919029000000002
 20
264.03533800000002
 30
0.0
 40
3.5002399999999998
 50
270.00002000000001
 51
359.99999000000003
  0
ARC
  5
687
  8
_________1
 62
     7
 10
59.919373999999998
 20
264.03499199999999
 30
0.0
 40
3.4998939999999998
 50
179.99432999999999
 51
269.99437999999998
  0
ARC
  5
688
  8
_________1
 62
     7
 10
59.919117000000007
 20
264.03542299999998
 30
0.0
 40
3.4996369999999999
 50
90.001410000000007
 51
180.00142
  0
ARC
  5
689
  8
_________1
 62
     7
 10
59.919288000000002
 20
264.035078
 30
0.0
 40
3.4999809999999991
 50
0.00424
 51
90.004210000000015
  0
LINE
  5
68A
  8
_________1
 62
     7
 10
61.419400000000003
 20
84.437799999999996
 30
0.0
 11
61.419400000000003
 21
182.43700000000001
 31
0.0
  0
LINE
  5
68B
  8
_________1
 62
     7
 10
58.418700000000001
 20
182.43700000000001
 30
0.0
 11
58.418700000000001
 21
84.437799999999996
 31
0.0
  0
LINE
  5
68C
  8
_________1
 62
     7
 10
-31.808900000000001
 20
65.686700000000002
 30
0.0
 11
-32.243000000000002
 21
65.686700000000002
 31
0.0
  0
LINE
  5
68D
  8
_________1
 62
     7
 10
-31.808900000000001
 20
70.936300000000003
 30
0.0
 11
-32.243000000000002
 21
70.936300000000003
 31
0.0
  0
ARC
  5
68E
  8
_________1
 62
     7
 10
-33.274656999999998
 20
66.091699000000006
 30
0.0
 40
0.5744690000000001
 50
224.83309499999999
 51
240.35101700000001
  0
ARC
  5
68F
  8
_________1
 62
     7
 10
-33.050272999999997
 20
66.453220000000002
 30
0.0
 40
0.999787
 50
239.42447400000009
 51
252.85125600000001
  0
ARC
  5
690
  8
_________1
 62
     7
 10
-32.948115000000001
 20
66.735536999999994
 30
0.0
 40
1.299755
 50
252.21762400000009
 51
269.34146500000003
  0
ARC
  5
691
  8
_________1
 62
     7
 10
-32.895986999999998
 20
66.419515000000004
 30
0.0
 40
0.9815379999999999
 50
272.75868000000003
 51
311.701032
  0
ARC
  5
692
  8
_________1
 62
     7
 10
-32.9589
 20
67.303914000000006
 30
0.0
 40
1.86805
 50
269.87259899999998
 51
273.38054699999998
  0
ARC
  5
693
  8
_________1
 62
     7
 10
-31.086089999999999
 20
67.052253000000007
 30
0.0
 40
1.5450959999999989
 50
242.106166
 51
251.55618000000001
  0
ARC
  5
694
  8
_________1
 62
     7
 10
-30.829612999999998
 20
67.77980500000001
 30
0.0
 40
2.3164560000000001
 50
251.23156700000001
 51
260.20734399999998
  0
ARC
  5
695
  8
_________1
 62
     7
 10
-30.586005
 20
69.063434000000001
 30
0.0
 40
3.6228820000000002
 50
259.86360400000001
 51
267.04343699999998
  0
ARC
  5
696
  8
_________1
 62
     7
 10
-30.424847
 20
71.652339999999995
 30
0.0
 40
6.2167139999999987
 50
266.790818
 51
270.50629900000001
  0
ARC
  5
697
  8
_________1
 62
     7
 10
-33.275403000000011
 20
70.532064000000005
 30
0.0
 40
0.5734130000000001
 50
119.623284
 51
135.167329
  0
ARC
  5
698
  8
_________1
 62
     7
 10
-33.051229999999997
 20
70.170556999999988
 30
0.0
 40
0.9986079999999999
 50
107.11217600000001
 51
120.551748
  0
ARC
  5
699
  8
_________1
 62
     7
 10
-32.948298999999999
 20
69.884929
 30
0.0
 40
1.301957
 50
90.649335999999991
 51
107.7428
  0
ARC
  5
69A
  8
_________1
 62
     7
 10
-32.895046999999998
 20
70.204544999999996
 30
0.0
 40
0.980133
 50
48.299378000000011
 51
87.292402999999993
  0
ARC
  5
69B
  8
_________1
 62
     7
 10
-32.959096000000002
 20
69.296194999999997
 30
0.0
 40
1.8906119999999991
 50
86.653881999999996
 51
90.119931999999991
  0
ARC
  5
69C
  8
_________1
 62
     7
 10
-31.087726
 20
69.572618999999975
 30
0.0
 40
1.542689999999999
 50
108.409565
 51
117.872381
  0
ARC
  5
69D
  8
_________1
 62
     7
 10
-30.829789999999999
 20
68.840609000000001
 30
0.0
 40
2.3187349999999989
 50
99.778490000000005
 51
108.744669
  0
ARC
  5
69E
  8
_________1
 62
     7
 10
-30.585799000000002
 20
67.552251999999996
 30
0.0
 40
3.6298789999999999
 50
92.954103999999987
 51
100.119944
  0
ARC
  5
69F
  8
_________1
 62
     7
 10
-30.424916
 20
64.96623000000001
 30
0.0
 40
6.2208149999999991
 50
89.493397000000016
 51
93.206424999999996
  0
LINE
  5
6A0
  8
_________1
 62
     7
 10
-33.682099999999998
 20
65.686700000000002
 30
0.0
 11
-33.682099999999998
 21
70.936300000000003
 31
0.0
  0
LINE
  5
6A1
  8
_________1
 62
     7
 10
-32.243000000000002
 20
70.936300000000003
 30
0.0
 11
-32.243000000000002
 21
65.686700000000002
 31
0.0
  0
LINE
  5
6A2
  8
_________1
 62
     7
 10
-31.808900000000001
 20
70.936999999999998
 30
0.0
 11
-31.808900000000001
 21
65.686700000000002
 31
0.0
  0
LINE
  5
6A3
  8
_________1
 62
     7
 10
-28.930499999999999
 20
65.686700000000002
 30
0.0
 11
-28.496500000000001
 21
65.686700000000002
 31
0.0
  0
LINE
  5
6A4
  8
_________1
 62
     7
 10
-28.930499999999999
 20
70.936300000000003
 30
0.0
 11
-28.496500000000001
 21
70.936300000000003
 31
0.0
  0
ARC
  5
6A5
  8
_________1
 62
     7
 10
-27.46771
 20
66.096115999999995
 30
0.0
 40
0.579873
 50
299.70469000000003
 51
315.08225800000002
  0
ARC
  5
6A6
  8
_________1
 62
     7
 10
-27.688949000000001
 20
66.452772999999993
 30
0.0
 40
0.999412
 50
287.16583600000001
 51
300.58945
  0
ARC
  5
6A7
  8
_________1
 62
     7
 10
-27.790680999999999
 20
66.734086000000005
 30
0.0
 40
1.2982949999999991
 50
270.62892399999998
 51
287.79136299999999
  0
ARC
  5
6A8
  8
_________1
 62
     7
 10
-27.843993999999999
 20
66.418299000000005
 30
0.0
 40
0.9803
 50
228.27339799999999
 51
267.266929
  0
ARC
  5
6A9
  8
_________1
 62
     7
 10
-27.780584000000001
 20
67.303914000000006
 30
0.0
 40
1.86805
 50
266.61947199999997
 51
270.12742100000003
  0
ARC
  5
6AA
  8
_________1
 62
     7
 10
-29.653086999999999
 20
67.051011000000003
 30
0.0
 40
1.5438549999999991
 50
288.451412
 51
297.90535799999998
  0
ARC
  5
6AB
  8
_________1
 62
     7
 10
-29.90935
 20
67.778059999999996
 30
0.0
 40
2.3146709999999988
 50
279.79058199999997
 51
288.77264600000001
  0
ARC
  5
6AC
  8
_________1
 62
     7
 10
-30.153462000000001
 20
69.065015000000002
 30
0.0
 40
3.624458999999999
 50
272.95467200000002
 51
280.13383299999998
  0
ARC
  5
6AD
  8
_________1
 62
     7
 10
-30.314903999999999
 20
71.660891000000007
 30
0.0
 40
6.2252660000000004
 50
269.49370499999998
 51
273.20705299999997
  0
ARC
  5
6AE
  8
_________1
 62
     7
 10
-27.466951999999999
 20
70.527662000000007
 30
0.0
 40
0.578798
 50
44.91731699999999
 51
60.321007000000002
  0
ARC
  5
6AF
  8
_________1
 62
     7
 10
-27.687991
 20
70.171005000000008
 30
0.0
 40
0.998231
 50
59.434333000000002
 51
72.870756999999983
  0
ARC
  5
6B0
  8
_________1
 62
     7
 10
-27.790497999999999
 20
69.886381
 30
0.0
 40
1.300497999999999
 50
72.248232999999999
 51
89.380201999999997
  0
ARC
  5
6B1
  8
_________1
 62
     7
 10
-27.844933000000001
 20
70.205757999999989
 30
0.0
 40
0.9788979999999998
 50
92.681988999999987
 51
131.72619
  0
ARC
  5
6B2
  8
_________1
 62
     7
 10
-27.780387999999999
 20
69.296194999999997
 30
0.0
 40
1.8906119999999991
 50
89.880048000000002
 51
93.346097999999998
  0
ARC
  5
6B3
  8
_________1
 62
     7
 10
-29.651451999999999
 20
69.573859999999996
 30
0.0
 40
1.54145
 50
62.116101000000008
 51
71.582855000000009
  0
ARC
  5
6B4
  8
_________1
 62
     7
 10
-29.909172999999999
 20
68.842354999999984
 30
0.0
 40
2.3169490000000001
 50
71.251121999999995
 51
80.223582000000007
  0
ARC
  5
6B5
  8
_________1
 62
     7
 10
-30.153666999999999
 20
67.550668000000002
 30
0.0
 40
3.6314579999999999
 50
79.882615000000001
 51
87.047785000000005
  0
ARC
  5
6B6
  8
_________1
 62
     7
 10
-30.314834999999999
 20
64.957673
 30
0.0
 40
6.2293729999999998
 50
86.795700999999994
 51
90.506597999999983
  0
LINE
  5
6B7
  8
_________1
 62
     7
 10
-27.869399999999999
 20
71.186800000000005
 30
0.0
 11
-27.869399999999999
 21
74.186499999999995
 31
0.0
  0
LINE
  5
6B8
  8
_________1
 62
     7
 10
-32.869999999999997
 20
71.186800000000005
 30
0.0
 11
-32.869999999999997
 21
74.186499999999995
 31
0.0
  0
LINE
  5
6B9
  8
_________1
 62
     7
 10
-28.306999999999999
 20
74.686000000000007
 30
0.0
 11
-27.869399999999999
 21
74.186499999999995
 31
0.0
  0
LINE
  5
6BA
  8
_________1
 62
     7
 10
-32.432499999999997
 20
74.686000000000007
 30
0.0
 11
-32.869999999999997
 21
74.186499999999995
 31
0.0
  0
LINE
  5
6BB
  8
_________1
 62
     7
 10
-28.306999999999999
 20
75.686099999999996
 30
0.0
 11
-32.432499999999997
 21
75.686099999999996
 31
0.0
  0
LINE
  5
6BC
  8
_________1
 62
     7
 10
-27.776399999999999
 20
65.435900000000004
 30
0.0
 11
-32.963099999999997
 21
65.435900000000004
 31
0.0
  0
LINE
  5
6BD
  8
_________1
 62
     7
 10
-27.776399999999999
 20
71.186800000000005
 30
0.0
 11
-32.963099999999997
 21
71.186800000000005
 31
0.0
  0
LINE
  5
6BE
  8
_________1
 62
     7
 10
-27.869399999999999
 20
74.186499999999995
 30
0.0
 11
-32.869999999999997
 21
74.186499999999995
 31
0.0
  0
LINE
  5
6BF
  8
_________1
 62
     7
 10
-28.306999999999999
 20
74.686000000000007
 30
0.0
 11
-32.432499999999997
 21
74.686000000000007
 31
0.0
  0
LINE
  5
6C0
  8
_________1
 62
     7
 10
-28.306999999999999
 20
75.436400000000006
 30
0.0
 11
-28.556699999999999
 21
75.686099999999996
 31
0.0
  0
LINE
  5
6C1
  8
_________1
 62
     7
 10
-32.181999999999988
 20
75.686099999999996
 30
0.0
 11
-32.432499999999997
 21
75.436400000000006
 31
0.0
  0
LINE
  5
6C2
  8
_________1
 62
     7
 10
-27.057099999999998
 20
65.686700000000002
 30
0.0
 11
-27.057099999999998
 21
70.936300000000003
 31
0.0
  0
LINE
  5
6C3
  8
_________1
 62
     7
 10
-28.496500000000001
 20
70.936300000000003
 30
0.0
 11
-28.496500000000001
 21
65.686700000000002
 31
0.0
  0
LINE
  5
6C4
  8
_________1
 62
     7
 10
-28.930499999999999
 20
70.936999999999998
 30
0.0
 11
-28.930499999999999
 21
65.686700000000002
 31
0.0
  0
LINE
  5
6C5
  8
_________1
 62
     7
 10
-28.556699999999999
 20
75.686099999999996
 30
0.0
 11
-28.556699999999999
 21
76.686199999999999
 31
0.0
  0
LINE
  5
6C6
  8
_________1
 62
     7
 10
-28.306999999999999
 20
74.686000000000007
 30
0.0
 11
-28.306999999999999
 21
76.686199999999999
 31
0.0
  0
LINE
  5
6C7
  8
_________1
 62
     7
 10
-32.181999999999988
 20
76.686199999999999
 30
0.0
 11
-32.181999999999988
 21
75.686099999999996
 31
0.0
  0
LINE
  5
6C8
  8
_________1
 62
     7
 10
-32.432499999999997
 20
76.686199999999999
 30
0.0
 11
-32.432499999999997
 21
74.686000000000007
 31
0.0
  0
LINE
  5
6C9
  8
_________1
 62
     7
 10
58.479700000000001
 20
65.686700000000002
 30
0.0
 11
58.0456
 21
65.686700000000002
 31
0.0
  0
LINE
  5
6CA
  8
_________1
 62
     7
 10
58.479700000000001
 20
70.936300000000003
 30
0.0
 11
58.0456
 21
70.936300000000003
 31
0.0
  0
ARC
  5
6CB
  8
_________1
 62
     7
 10
57.015497000000003
 20
66.093845000000002
 30
0.0
 40
0.5770850000000002
 50
224.875429
 51
240.32559000000001
  0
ARC
  5
6CC
  8
_________1
 62
     7
 10
57.23854
 20
66.453918000000002
 30
0.0
 40
1.0004779999999991
 50
239.4361770000001
 51
252.85876099999999
  0
ARC
  5
6CD
  8
_________1
 62
     7
 10
57.340738999999999
 20
66.736243000000002
 30
0.0
 40
1.300462999999999
 50
252.22209100000009
 51
269.33061099999998
  0
ARC
  5
6CE
  8
_________1
 62
     7
 10
57.393588000000001
 20
66.417102
 30
0.0
 40
0.9790889999999999
 50
272.71697599999999
 51
311.75236799999999
  0
ARC
  5
6CF
  8
_________1
 62
     7
 10
57.329714000000003
 20
67.308328000000003
 30
0.0
 40
1.872463999999999
 50
269.87244600000002
 51
273.37657100000001
  0
ARC
  5
6D0
  8
_________1
 62
     7
 10
59.202449000000001
 20
67.052137000000002
 30
0.0
 40
1.544964
 50
242.10614699999999
 51
251.557152
  0
ARC
  5
6D1
  8
_________1
 62
     7
 10
59.458933999999999
 20
67.779623999999984
 30
0.0
 40
2.316266999999999
 50
251.23148900000001
 51
260.20826099999999
  0
ARC
  5
6D2
  8
_________1
 62
     7
 10
59.702691999999999
 20
69.06444599999999
 30
0.0
 40
3.6238919999999988
 50
259.8651680000001
 51
267.044353
  0
ARC
  5
6D3
  8
_________1
 62
     7
 10
59.86401
 20
71.657526000000004
 30
0.0
 40
6.221900999999999
 50
266.7920640000001
 51
270.50667800000002
  0
ARC
  5
6D4
  8
_________1
 62
     7
 10
57.014744999999991
 20
70.529925000000006
 30
0.0
 40
0.57602
 50
119.648712
 51
135.12499500000001
  0
ARC
  5
6D5
  8
_________1
 62
     7
 10
57.237583000000001
 20
70.169859000000002
 30
0.0
 40
0.9992979999999999
 50
107.10468400000001
 51
120.54004999999999
  0
ARC
  5
6D6
  8
_________1
 62
     7
 10
57.340555000000002
 20
69.884221999999994
 30
0.0
 40
1.302667
 50
90.660165000000006
 51
107.738342
  0
ARC
  5
6D7
  8
_________1
 62
     7
 10
57.394525000000002
 20
70.206952000000001
 30
0.0
 40
0.9776889999999999
 50
48.248046000000002
 51
87.334112000000005
  0
ARC
  5
6D8
  8
_________1
 62
     7
 10
57.329518000000007
 20
69.291730000000001
 30
0.0
 40
1.8950769999999999
 50
86.657817000000009
 51
90.120091999999985
  0
ARC
  5
6D9
  8
_________1
 62
     7
 10
59.200812999999997
 20
69.572734999999994
 30
0.0
 40
1.5425589999999989
 50
108.40859399999999
 51
117.8724
  0
ARC
  5
6DA
  8
_________1
 62
     7
 10
59.458756999999991
 20
68.840789999999984
 30
0.0
 40
2.3185459999999991
 50
99.777573999999987
 51
108.744747
  0
ARC
  5
6DB
  8
_________1
 62
     7
 10
59.702897
 20
67.551238999999995
 30
0.0
 40
3.6308899999999991
 50
92.953190000000006
 51
100.118382
  0
ARC
  5
6DC
  8
_________1
 62
     7
 10
59.863940999999997
 20
64.961039999999997
 30
0.0
 40
6.226005999999999
 50
89.493020000000016
 51
93.20518100000001
  0
LINE
  5
6DD
  8
_________1
 62
     7
 10
56.606499999999997
 20
65.686700000000002
 30
0.0
 11
56.606499999999997
 21
70.936300000000003
 31
0.0
  0
LINE
  5
6DE
  8
_________1
 62
     7
 10
58.0456
 20
70.936300000000003
 30
0.0
 11
58.0456
 21
65.686700000000002
 31
0.0
  0
LINE
  5
6DF
  8
_________1
 62
     7
 10
58.479700000000001
 20
70.936999999999998
 30
0.0
 11
58.479700000000001
 21
65.686700000000002
 31
0.0
  0
LINE
  5
6E0
  8
_________1
 62
     7
 10
61.358400000000003
 20
65.686700000000002
 30
0.0
 11
61.79249999999999
 21
65.686700000000002
 31
0.0
  0
LINE
  5
6E1
  8
_________1
 62
     7
 10
61.358400000000003
 20
70.936300000000003
 30
0.0
 11
61.79249999999999
 21
70.936300000000003
 31
0.0
  0
ARC
  5
6E2
  8
_________1
 62
     7
 10
62.821432999999999
 20
66.094978999999995
 30
0.0
 40
0.5786850000000001
 50
299.72577799999999
 51
315.123985
  0
ARC
  5
6E3
  8
_________1
 62
     7
 10
62.600402000000003
 20
66.45129
 30
0.0
 40
0.9978239999999999
 50
287.15917000000002
 51
300.60253
  0
ARC
  5
6E4
  8
_________1
 62
     7
 10
62.498077000000002
 20
66.734131000000005
 30
0.0
 40
1.298343
 50
270.637113
 51
287.79133200000001
  0
ARC
  5
6E5
  8
_________1
 62
     7
 10
62.44447199999999
 20
66.417102
 30
0.0
 40
0.9790889999999999
 50
228.24765199999999
 51
267.28304400000002
  0
ARC
  5
6E6
  8
_________1
 62
     7
 10
62.508344999999991
 20
67.308328000000003
 30
0.0
 40
1.872463999999999
 50
266.62344899999999
 51
270.12757299999998
  0
ARC
  5
6E7
  8
_________1
 62
     7
 10
60.635610999999997
 20
67.052137000000002
 30
0.0
 40
1.544964
 50
288.44286699999998
 51
297.89387299999999
  0
ARC
  5
6E8
  8
_________1
 62
     7
 10
60.379125999999999
 20
67.779623999999984
 30
0.0
 40
2.316266999999999
 50
279.79175900000001
 51
288.768531
  0
ARC
  5
6E9
  8
_________1
 62
     7
 10
60.135368
 20
69.06444599999999
 30
0.0
 40
3.6238919999999988
 50
272.95566700000001
 51
280.13485200000002
  0
ARC
  5
6EA
  8
_________1
 62
     7
 10
59.974049000000001
 20
71.657526000000004
 30
0.0
 40
6.221900999999999
 50
269.49334199999998
 51
273.20795600000002
  0
ARC
  5
6EB
  8
_________1
 62
     7
 10
62.822189999999999
 20
70.528796
 30
0.0
 40
0.5776130000000002
 50
44.875590000000003
 51
60.299925999999992
  0
ARC
  5
6EC
  8
_________1
 62
     7
 10
62.601357999999998
 20
70.172484999999995
 30
0.0
 40
0.996647
 50
59.421259999999997
 51
72.877420999999998
  0
ARC
  5
6ED
  8
_________1
 62
     7
 10
62.498260999999992
 20
69.886336
 30
0.0
 40
1.3005450000000001
 50
72.248264000000006
 51
89.372034999999997
  0
ARC
  5
6EE
  8
_________1
 62
     7
 10
62.44353499999999
 20
70.206952000000001
 30
0.0
 40
0.9776889999999999
 50
92.665868000000003
 51
131.75193400000001
  0
ARC
  5
6EF
  8
_________1
 62
     7
 10
62.508541999999998
 20
69.291730000000001
 30
0.0
 40
1.8950769999999999
 50
89.879887999999994
 51
93.342163999999997
  0
ARC
  5
6F0
  8
_________1
 62
     7
 10
60.637246999999988
 20
69.572734999999994
 30
0.0
 40
1.5425589999999989
 50
62.127580000000002
 51
71.591386999999983
  0
ARC
  5
6F1
  8
_________1
 62
     7
 10
60.379303
 20
68.840789999999984
 30
0.0
 40
2.3185459999999991
 50
71.25523299999999
 51
80.222406000000007
  0
ARC
  5
6F2
  8
_________1
 62
     7
 10
60.135162999999999
 20
67.551238999999995
 30
0.0
 40
3.6308899999999991
 50
79.881597999999997
 51
87.046790000000001
  0
ARC
  5
6F3
  8
_________1
 62
     7
 10
59.974118999999988
 20
64.961039999999997
 30
0.0
 40
6.226005999999999
 50
86.794798999999998
 51
90.506961000000004
  0
LINE
  5
6F4
  8
_________1
 62
     7
 10
62.419499999999999
 20
71.186800000000005
 30
0.0
 11
62.419499999999999
 21
74.186499999999995
 31
0.0
  0
LINE
  5
6F5
  8
_________1
 62
     7
 10
57.418599999999991
 20
71.186800000000005
 30
0.0
 11
57.418599999999991
 21
74.186499999999995
 31
0.0
  0
LINE
  5
6F6
  8
_________1
 62
     7
 10
61.981999999999992
 20
74.686000000000007
 30
0.0
 11
62.419499999999999
 21
74.186499999999995
 31
0.0
  0
LINE
  5
6F7
  8
_________1
 62
     7
 10
57.856099999999998
 20
74.686000000000007
 30
0.0
 11
57.418599999999991
 21
74.186499999999995
 31
0.0
  0
LINE
  5
6F8
  8
_________1
 62
     7
 10
61.981999999999992
 20
75.686099999999996
 30
0.0
 11
57.856099999999998
 21
75.686099999999996
 31
0.0
  0
INSERT
  5
6F9
  8
_________1
 62
     7
  2
AIGNBL02010003
 10
0.0
 20
0.0
 30
0.0
  0
LINE
  5
6FA
  8
_________1
 62
     7
 10
62.512500000000003
 20
65.435900000000004
 30
0.0
 11
57.325499999999991
 21
65.435900000000004
 31
0.0
  0
LINE
  5
6FB
  8
_________1
 62
     7
 10
62.512500000000003
 20
71.186800000000005
 30
0.0
 11
57.325499999999991
 21
71.186800000000005
 31
0.0
  0
LINE
  5
6FC
  8
_________1
 62
     7
 10
62.419499999999999
 20
74.186499999999995
 30
0.0
 11
57.418599999999991
 21
74.186499999999995
 31
0.0
  0
LINE
  5
6FD
  8
_________1
 62
     7
 10
61.981999999999992
 20
74.686000000000007
 30
0.0
 11
57.856099999999998
 21
74.686000000000007
 31
0.0
  0
LINE
  5
6FE
  8
_________1
 62
     7
 10
61.981999999999992
 20
75.436400000000006
 30
0.0
 11
61.731900000000003
 21
75.686099999999996
 31
0.0
  0
LINE
  5
6FF
  8
_________1
 62
     7
 10
58.10690000000001
 20
75.686099999999996
 30
0.0
 11
57.856099999999998
 21
75.436400000000006
 31
0.0
  0
LINE
  5
700
  8
_________1
 62
     7
 10
63.231499999999997
 20
65.686700000000002
 30
0.0
 11
63.231499999999997
 21
70.936300000000003
 31
0.0
  0
LINE
  5
701
  8
_________1
 62
     7
 10
62.544199999999989
 20
64.849500000000006
 30
0.0
 11
62.544199999999989
 21
56.712800000000001
 31
0.0
  0
LINE
  5
702
  8
_________1
 62
     7
 10
57.293900000000001
 20
64.849500000000006
 30
0.0
 11
57.293900000000001
 21
56.712800000000001
 31
0.0
  0
LINE
  5
703
  8
_________1
 62
     7
 10
61.79249999999999
 20
70.936300000000003
 30
0.0
 11
61.79249999999999
 21
65.686700000000002
 31
0.0
  0
LINE
  5
704
  8
_________1
 62
     7
 10
61.358400000000003
 20
70.936999999999998
 30
0.0
 11
61.358400000000003
 21
65.686700000000002
 31
0.0
  0
LINE
  5
705
  8
_________1
 62
     7
 10
61.731900000000003
 20
75.686099999999996
 30
0.0
 11
61.731900000000003
 21
76.686199999999999
 31
0.0
  0
LINE
  5
706
  8
_________1
 62
     7
 10
61.981999999999992
 20
74.686000000000007
 30
0.0
 11
61.981999999999992
 21
76.686199999999999
 31
0.0
  0
LINE
  5
707
  8
_________1
 62
     7
 10
58.10690000000001
 20
76.686199999999999
 30
0.0
 11
58.10690000000001
 21
75.686099999999996
 31
0.0
  0
LINE
  5
708
  8
_________1
 62
     7
 10
57.856099999999998
 20
76.686199999999999
 30
0.0
 11
57.856099999999998
 21
74.686000000000007
 31
0.0
  0
LINE
  5
709
  8
_________1
  6
AIGENLINE001
 62
     7
 10
-30.369900000000001
 20
63.061799999999998
 30
0.0
 11
-30.369900000000001
 21
229.46299999999999
 31
0.0
  0
LINE
  5
70A
  8
_________1
 62
     7
 10
52.363199999999999
 20
256.47899999999998
 30
0.0
 11
45.423999999999992
 21
256.47899999999998
 31
0.0
  0
LINE
  5
70B
  8
_________1
  6
AIGENLINE001
 62
     7
 10
67.546499999999995
 20
264.03500000000003
 30
0.0
 11
52.322499999999998
 21
264.03500000000003
 31
0.0
  0
LINE
  5
70C
  8
_________1
 62
     7
 10
-27.616199999999999
 20
79.561899999999994
 30
0.0
 11
-27.616199999999999
 21
76.935699999999997
 31
0.0
  0
LINE
  5
70D
  8
_________1
 62
     7
 10
-28.991900000000001
 20
79.561899999999994
 30
0.0
 11
-28.991900000000001
 21
76.935699999999997
 31
0.0
  0
ARC
  5
70E
  8
_________1
 62
     7
 10
-31.297198999999999
 20
85.548201999999989
 30
0.0
 40
9.3661750000000001
 50
291.60774099999998
 51
293.141705
  0
ARC
  5
70F
  8
_________1
 62
     7
 10
-28.523313999999999
 20
78.58534499999999
 30
0.0
 40
1.871195999999999
 50
281.54828599999991
 51
291.15202799999997
  0
ARC
  5
710
  8
_________1
 62
     7
 10
-28.323801
 20
77.689930000000004
 30
0.0
 40
0.954104
 50
270.43098300000003
 51
280.57433400000002
  0
ARC
  5
711
  8
_________1
 62
     7
 10
-28.316486999999999
 20
77.641773000000001
 30
0.0
 40
0.90592
 50
257.53026799999998
 51
269.991333
  0
ARC
  5
712
  8
_________1
 62
     7
 10
-28.193964999999999
 20
78.265017
 30
0.0
 40
1.5409889999999991
 50
247.169749
 51
258.085823
  0
ARC
  5
713
  8
_________1
 62
     7
 10
-27.739561999999999
 20
79.424948000000001
 30
0.0
 40
2.7865349999999989
 50
243.29396499999999
 51
247.812341
  0
ARC
  5
714
  8
_________1
 62
     7
 10
-28.237472
 20
78.446076000000005
 30
0.0
 40
1.3468990000000001
 50
97.353746000000001
 51
124.062563
  0
ARC
  5
715
  8
_________1
 62
     7
 10
-28.3155
 20
78.885384999999999
 30
0.0
 40
0.9014649999999999
 50
90.071468999999979
 51
96.008945000000026
  0
ARC
  5
716
  8
_________1
 62
     7
 10
-28.31742800000001
 20
78.866949000000005
 30
0.0
 40
0.9198999999999999
 50
77.819569999999999
 51
89.949966999999987
  0
ARC
  5
717
  8
_________1
 62
     7
 10
-28.409302
 20
78.393101000000001
 30
0.0
 40
1.4025030000000001
 50
66.651612
 51
78.235112999999984
  0
ARC
  5
718
  8
_________1
 62
     7
 10
-28.641059999999989
 20
77.812832
 30
0.0
 40
2.027177
 50
59.632520999999997
 51
67.137557999999999
  0
LINE
  5
719
  8
_________1
 62
     7
 10
-31.8675
 20
182.43700000000001
 30
0.0
 11
-31.8675
 21
84.437799999999996
 31
0.0
  0
LINE
  5
71A
  8
_________1
 62
     7
 10
-28.866800000000001
 20
182.43700000000001
 30
0.0
 11
-28.866800000000001
 21
84.437799999999996
 31
0.0
  0
LINE
  5
71B
  8
_________1
 62
     7
 10
-33.117100000000001
 20
79.561899999999994
 30
0.0
 11
-33.117100000000001
 21
76.935699999999997
 31
0.0
  0
LINE
  5
71C
  8
_________1
 62
     7
 10
-31.7424
 20
79.561899999999994
 30
0.0
 11
-31.7424
 21
76.935699999999997
 31
0.0
  0
ARC
  5
71D
  8
_________1
 62
     7
 10
-35.021146999999999
 20
84.540409999999994
 30
0.0
 40
8.2814209999999981
 50
291.67146000000002
 51
293.32275199999998
  0
ARC
  5
71E
  8
_________1
 62
     7
 10
-32.697775999999998
 20
78.717686
 30
0.0
 40
2.0123029999999988
 50
282.23397499999999
 51
291.41776800000002
  0
ARC
  5
71F
  8
_________1
 62
     7
 10
-32.427473999999997
 20
77.540058000000002
 30
0.0
 40
0.8042739999999998
 50
270.74598600000002
 51
281.19244900000001
  0
ARC
  5
720
  8
_________1
 62
     7
 10
-32.416209000000002
 20
77.640916000000004
 30
0.0
 40
0.905063
 50
257.779202
 51
269.94974400000001
  0
ARC
  5
721
  8
_________1
 62
     7
 10
-32.316417000000001
 20
78.177095999999992
 30
0.0
 40
1.4503049999999991
 50
252.918812
 51
258.410054
  0
ARC
  5
722
  8
_________1
 62
     7
 10
-32.063299999999998
 20
78.996697999999995
 30
0.0
 40
2.308101999999999
 50
248.54288399999999
 51
252.88869099999999
  0
ARC
  5
723
  8
_________1
 62
     7
 10
-30.522472
 20
82.878955000000005
 30
0.0
 40
6.4849420000000002
 50
246.41603499999999
 51
248.420196
  0
ARC
  5
724
  8
_________1
 62
     7
 10
-32.108997000000002
 20
77.831653000000003
 30
0.0
 40
2.0024649999999991
 50
107.898735
 51
120.225623
  0
ARC
  5
725
  8
_________1
 62
     7
 10
-32.392471999999998
 20
78.658321999999984
 30
0.0
 40
1.1287940000000001
 50
91.245268999999993
 51
107.10230199999999
  0
ARC
  5
726
  8
_________1
 62
     7
 10
-32.417738999999997
 20
79.019068999999988
 30
0.0
 40
0.7677800000000001
 50
76.151353
 51
89.945063000000005
  0
ARC
  5
727
  8
_________1
 62
     7
 10
-32.561178000000012
 20
78.340249
 30
0.0
 40
1.461384999999999
 50
65.863433000000001
 51
77.061440000000005
  0
ARC
  5
728
  8
_________1
 62
     7
 10
-32.799834000000011
 20
77.748148999999984
 30
0.0
 40
2.09945
 50
59.758313999999999
 51
66.527321000000001
  0
ARC
  5
729
  8
_________1
 62
     7
 10
-27.681497
 20
70.369973000000002
 30
0.0
 40
6.6951799999999997
 50
101.286687
 51
103.19729100000001
  0
ARC
  5
72A
  8
_________1
 62
     7
 10
-30.681528
 20
82.466240999999997
 30
0.0
 40
5.7687390000000001
 50
278.578574
 51
284.77831400000002
  0
ARC
  5
72B
  8
_________1
 62
     7
 10
-30.167338000000001
 20
79.02692900000001
 30
0.0
 40
2.2912110000000001
 50
270.62022400000001
 51
278.69332400000002
  0
LINE
  5
72C
  8
_________1
 62
     7
 10
-30.142499999999998
 20
76.735900000000001
 30
0.0
 11
-30.591799999999999
 21
76.735900000000001
 31
0.0
  0
ARC
  5
72D
  8
_________1
 62
     7
 10
-30.591460999999999
 20
78.696001999999993
 30
0.0
 40
1.9601489999999999
 50
261.53813000000002
 51
269.990679
  0
ARC
  5
72E
  8
_________1
 62
     7
 10
-30.377468
 20
80.350546999999992
 30
0.0
 40
3.6283110000000001
 50
258.55158499999999
 51
262.04038400000002
  0
ARC
  5
72F
  8
_________1
 62
     7
 10
-28.959295000000001
 20
87.238687999999996
 30
0.0
 40
10.660914999999999
 50
256.53862299999997
 51
258.42927100000003
  0
ARC
  5
730
  8
_________1
 62
     7
 10
-32.874158000000001
 20
70.957703000000009
 30
0.0
 40
6.084147999999999
 50
76.376069000000001
 51
79.280000000000001
  0
ARC
  5
731
  8
_________1
 62
     7
 10
-30.493998000000001
 20
75.869132999999991
 30
0.0
 40
3.8980800000000002
 50
102.80455499999999
 51
108.67944199999999
  0
ARC
  5
732
  8
_________1
 62
     7
 10
-30.260185
 20
75.028017000000006
 30
0.0
 40
4.7702790000000004
 50
94.334489000000005
 51
103.30403699999999
  0
ARC
  5
733
  8
_________1
 62
     7
 10
-30.474170000000001
 20
77.503450000000001
 30
0.0
 40
2.2859050000000001
 50
87.316779999999994
 51
93.675730999999985
  0
ARC
  5
734
  8
_________1
 62
     7
 10
-30.283842
 20
78.369112000000001
 30
0.0
 40
1.4201829999999991
 50
88.960711999999987
 51
93.363241000000016
  0
ARC
  5
735
  8
_________1
 62
     7
 10
-30.297578000000001
 20
77.208012999999994
 30
0.0
 40
2.58135
 50
85.192391000000001
 51
89.123314000000008
  0
ARC
  5
736
  8
_________1
 62
     7
 10
-30.495785999999999
 20
74.886445999999992
 30
0.0
 40
4.9113619999999996
 50
72.168890000000005
 51
85.158092999999994
  0
LINE
  5
737
  8
_________1
 62
     7
 10
-29.116599999999998
 20
79.962500000000006
 30
0.0
 11
-30.3672
 21
79.962500000000006
 31
0.0
  0
LINE
  5
738
  8
_________1
 62
     7
 10
-31.617000000000001
 20
79.962500000000006
 30
0.0
 11
-30.3672
 21
79.962500000000006
 31
0.0
  0
LINE
  5
739
  8
_________1
 62
     7
 10
-32.6678
 20
76.686199999999999
 30
0.0
 11
-30.3672
 21
76.686199999999999
 31
0.0
  0
LINE
  5
73A
  8
_________1
 62
     7
 10
-30.3672
 20
76.686199999999999
 30
0.0
 11
-28.066500000000001
 21
76.686199999999999
 31
0.0
  0
LINE
  5
73B
  8
_________1
 62
     7
 10
-27.766100000000002
 20
76.886099999999999
 30
0.0
 11
-28.066500000000001
 21
76.710999999999999
 31
0.0
  0
LINE
  5
73C
  8
_________1
 62
     7
 10
-28.066500000000001
 20
76.710999999999999
 30
0.0
 11
-28.066500000000001
 21
76.686199999999999
 31
0.0
  0
LINE
  5
73D
  8
_________1
 62
     7
 10
-27.616199999999999
 20
76.935699999999997
 30
0.0
 11
-28.066500000000001
 21
76.710999999999999
 31
0.0
  0
LINE
  5
73E
  8
_________1
 62
     7
 10
-33.117100000000001
 20
76.935699999999997
 30
0.0
 11
-32.6678
 21
76.686199999999999
 31
0.0
  0
LINE
  5
73F
  8
_________1
 62
     7
 10
-32.692599999999999
 20
76.710999999999999
 30
0.0
 11
-32.6678
 21
76.686199999999999
 31
0.0
  0
LINE
  5
740
  8
_________1
 62
     7
 10
-32.6678
 20
79.811700000000002
 30
0.0
 11
-28.066500000000001
 21
79.811700000000002
 31
0.0
  0
LINE
  5
741
  8
_________1
 62
     7
 10
-31.9175
 20
79.936400000000006
 30
0.0
 11
-28.8169
 21
79.936400000000006
 31
0.0
  0
ARC
  5
742
  8
_________1
 62
     7
 10
-29.37228300000001
 20
80.637523999999999
 30
0.0
 40
0.7217859999999999
 50
290.74829699999998
 51
326.42668600000002
  0
ARC
  5
743
  8
_________1
 62
     7
 10
-29.196833000000002
 20
80.493892000000002
 30
0.0
 40
0.4966910000000001
 50
329.04007000000001
 51
341.59058299999998
  0
LINE
  5
744
  8
_________1
 62
     7
 10
-28.7256
 20
80.337000000000003
 30
0.0
 11
-28.691500000000001
 21
80.436899999999994
 31
0.0
  0
LINE
  5
745
  8
_________1
 62
     7
 10
-28.691500000000001
 20
80.436899999999994
 30
0.0
 11
-28.691500000000001
 21
80.586799999999997
 31
0.0
  0
LINE
  5
746
  8
_________1
 62
     7
 10
-28.691500000000001
 20
80.586799999999997
 30
0.0
 11
-28.741800000000001
 21
80.761799999999994
 31
0.0
  0
LINE
  5
747
  8
_________1
 62
     7
 10
-32.017400000000002
 20
80.761799999999994
 30
0.0
 11
-31.991900000000001
 21
80.761799999999994
 31
0.0
  0
ARC
  5
748
  8
_________1
 62
     7
 10
-2.1799729999999991
 20
76.443631000000011
 30
0.0
 40
30.148250000000001
 50
171.765085
 51
172.10101399999999
  0
LINE
  5
749
  8
_________1
 62
     7
 10
-32.042200000000001
 20
80.586799999999997
 30
0.0
 11
-32.042200000000001
 21
80.436899999999994
 31
0.0
  0
LINE
  5
74A
  8
_________1
 62
     7
 10
-32.042200000000001
 20
80.436899999999994
 30
0.0
 11
-32.009799999999998
 21
80.337000000000003
 31
0.0
  0
ARC
  5
74B
  8
_________1
 62
     7
 10
-30.943168
 20
80.694106999999974
 30
0.0
 40
1.1248039999999999
 50
198.5090209999999
 51
203.29891699999999
  0
ARC
  5
74C
  8
_________1
 62
     7
 10
-31.537559000000002
 20
80.437093999999988
 30
0.0
 40
0.477229
 50
203.18410900000001
 51
222.30998299999999
  0
ARC
  5
74D
  8
_________1
 62
     7
 10
-31.606078000000011
 20
80.393420999999975
 30
0.0
 40
0.3974
 50
224.30376299999989
 51
234.65786900000001
  0
ARC
  5
74E
  8
_________1
 62
     7
 10
-31.413266
 20
80.671231000000006
 30
0.0
 40
0.7355550000000001
 50
234.924418
 51
242.333382
  0
ARC
  5
74F
  8
_________1
 62
     7
 10
-29.665735999999999
 20
84.003001999999995
 30
0.0
 40
4.4978099999999994
 50
242.32452599999999
 51
243.93755400000001
  0
LINE
  5
750
  8
_________1
 62
     7
 10
-31.6419
 20
79.962500000000006
 30
0.0
 11
-31.617000000000001
 21
79.962500000000006
 31
0.0
  0
LINE
  5
751
  8
_________1
 62
     7
 10
-31.8169
 20
81.186899999999994
 30
0.0
 11
-28.941600000000001
 21
81.186899999999994
 31
0.0
  0
LINE
  5
752
  8
_________1
 62
     7
 10
-31.8169
 20
83.187200000000004
 30
0.0
 11
-30.3672
 21
83.187200000000004
 31
0.0
  0
LINE
  5
753
  8
_________1
 62
     7
 10
-30.3672
 20
83.187200000000004
 30
0.0
 11
-28.941600000000001
 21
83.187200000000004
 31
0.0
  0
LINE
  5
754
  8
_________1
 62
     7
 10
-28.691500000000001
 20
83.737399999999994
 30
0.0
 11
-28.691500000000001
 21
83.612300000000005
 31
0.0
  0
LINE
  5
755
  8
_________1
 62
     7
 10
-28.691500000000001
 20
83.612300000000005
 30
0.0
 11
-28.7669
 21
83.486900000000006
 31
0.0
  0
LINE
  5
756
  8
_________1
 62
     7
 10
-32.067300000000003
 20
83.737399999999994
 30
0.0
 11
-32.042200000000001
 21
83.612300000000005
 31
0.0
  0
LINE
  5
757
  8
_________1
 62
     7
 10
-32.042200000000001
 20
83.612300000000005
 30
0.0
 11
-31.991900000000001
 21
83.486900000000006
 31
0.0
  0
LINE
  5
758
  8
_________1
 62
     7
 10
-32.067300000000003
 20
84.437799999999996
 30
0.0
 11
-28.691500000000001
 21
84.437799999999996
 31
0.0
  0
LINE
  5
759
  8
_________1
 62
     7
 10
-32.067300000000003
 20
84.437799999999996
 30
0.0
 11
-32.067300000000003
 21
83.737399999999994
 31
0.0
  0
LINE
  5
75A
  8
_________1
 62
     7
 10
-28.691500000000001
 20
84.437799999999996
 30
0.0
 11
-28.691500000000001
 21
83.737399999999994
 31
0.0
  0
LINE
  5
75B
  8
_________1
 62
     7
 10
-28.066500000000001
 20
79.811700000000002
 30
0.0
 11
-27.616199999999999
 21
79.561899999999994
 31
0.0
  0
LINE
  5
75C
  8
_________1
 62
     7
 10
-32.6678
 20
79.811700000000002
 30
0.0
 11
-33.117100000000001
 21
79.561899999999994
 31
0.0
  0
LINE
  5
75D
  8
_________1
 62
     7
 10
-31.991900000000001
 20
83.486900000000006
 30
0.0
 11
-31.8169
 21
83.187200000000004
 31
0.0
  0
LINE
  5
75E
  8
_________1
 62
     7
 10
-31.8169
 20
81.186899999999994
 30
0.0
 11
-31.991900000000001
 21
80.761799999999994
 31
0.0
  0
LINE
  5
75F
  8
_________1
 62
     7
 10
-28.7669
 20
83.486900000000006
 30
0.0
 11
-28.941600000000001
 21
83.187200000000004
 31
0.0
  0
LINE
  5
760
  8
_________1
 62
     7
 10
-28.941600000000001
 20
81.186899999999994
 30
0.0
 11
-28.741800000000001
 21
80.761799999999994
 31
0.0
  0
LINE
  5
761
  8
_________1
 62
     7
 10
-31.8169
 20
83.187200000000004
 30
0.0
 11
-31.8169
 21
81.186899999999994
 31
0.0
  0
LINE
  5
762
  8
_________1
 62
     7
 10
-28.941600000000001
 20
83.187200000000004
 30
0.0
 11
-28.941600000000001
 21
81.186899999999994
 31
0.0
  0
LINE
  5
763
  8
_________1
 62
     7
 10
-31.9175
 20
79.936400000000006
 30
0.0
 11
-31.9175
 21
79.811700000000002
 31
0.0
  0
LINE
  5
764
  8
_________1
 62
     7
 10
-28.8169
 20
79.936400000000006
 30
0.0
 11
-28.8169
 21
79.811700000000002
 31
0.0
  0
LINE
  5
765
  8
_________1
 62
     7
 10
-33.117100000000001
 20
76.935699999999997
 30
0.0
 11
-32.6678
 21
76.686199999999999
 31
0.0
  0
LINE
  5
766
  8
_________1
 62
     7
 10
-27.616199999999999
 20
76.935699999999997
 30
0.0
 11
-28.066500000000001
 21
76.686199999999999
 31
0.0
  0
LINE
  5
767
  8
_________1
 62
     7
 10
59.918999999999997
 20
76.935699999999997
 30
0.0
 11
59.918999999999997
 21
79.5608
 31
0.0
  0
LINE
  5
768
  8
_________1
 62
     7
 10
57.543599999999998
 20
76.935699999999997
 30
0.0
 11
57.543599999999998
 21
79.5608
 31
0.0
  0
ARC
  5
769
  8
_________1
 62
     7
 10
63.283493999999997
 20
99.862239000000002
 30
0.0
 40
23.634164999999999
 50
255.94441
 51
256.936915
  0
ARC
  5
76A
  8
_________1
 62
     7
 10
59.037457999999987
 20
81.684976000000006
 30
0.0
 40
4.967668999999999
 50
257.255942
 51
263.09728200000001
  0
ARC
  5
76B
  8
_________1
 62
     7
 10
58.754558000000003
 20
79.567043999999996
 30
0.0
 40
2.83121
 50
263.62969199999998
 51
269.79130900000001
  0
ARC
  5
76C
  8
_________1
 62
     7
 10
58.742939
 20
79.247545000000002
 30
0.0
 40
2.5116930000000002
 50
270.029786
 51
277.23012499999999
  0
ARC
  5
76D
  8
_________1
 62
     7
 10
58.604892
 20
80.496934999999993
 30
0.0
 40
3.7685769999999992
 50
276.92161499999997
 51
280.344022
  0
ARC
  5
76E
  8
_________1
 62
     7
 10
58.223199999999999
 20
82.574963999999994
 30
0.0
 40
5.8813680000000002
 50
280.367031
 51
283.11660499999999
  0
ARC
  5
76F
  8
_________1
 62
     7
 10
55.378210000000003
 20
94.658326000000002
 30
0.0
 40
18.295124999999999
 50
283.20632000000001
 51
284.37093500000009
  0
ARC
  5
770
  8
_________1
 62
     7
 10
58.293536000000003
 20
74.801497999999995
 30
0.0
 40
5.0292789999999989
 50
71.143065000000007
 51
78.851810999999998
  0
ARC
  5
771
  8
_________1
 62
     7
 10
58.713213000000003
 20
76.774056999999999
 30
0.0
 40
3.0129509999999988
 50
79.429346999999993
 51
89.409870000000012
  0
ARC
  5
772
  8
_________1
 62
     7
 10
58.744585000000001
 20
76.903696999999994
 30
0.0
 40
2.883151999999999
 50
90.006745999999993
 51
100.85238
  0
ARC
  5
773
  8
_________1
 62
     7
 10
58.990568000000003
 20
75.430431999999996
 30
0.0
 40
4.3765279999999986
 50
100.383672
 51
109.306101
  0
ARC
  5
774
  8
_________1
 62
     7
 10
65.587356999999983
 20
99.576222999999999
 30
0.0
 40
23.339334999999998
 50
255.944266
 51
256.949771
  0
ARC
  5
775
  8
_________1
 62
     7
 10
61.416180000000011
 20
81.701649000000003
 30
0.0
 40
4.9846190000000004
 50
257.263238
 51
263.08249899999998
  0
ARC
  5
776
  8
_________1
 62
     7
 10
61.129250999999996
 20
79.554008999999994
 30
0.0
 40
2.8181769999999999
 50
263.61473000000001
 51
269.783863
  0
ARC
  5
777
  8
_________1
 62
     7
 10
61.117328999999998
 20
79.257036999999997
 30
0.0
 40
2.521183999999999
 50
270.02934199999999
 51
277.21648199999998
  0
ARC
  5
778
  8
_________1
 62
     7
 10
60.980693000000002
 20
80.492445999999987
 30
0.0
 40
3.7640220000000002
 50
276.917575
 51
280.34477299999998
  0
ARC
  5
779
  8
_________1
 62
     7
 10
60.597411999999998
 20
82.577907999999994
 30
0.0
 40
5.8844120000000002
 50
280.36972700000001
 51
283.11746799999997
  0
ARC
  5
77A
  8
_________1
 62
     7
 10
57.612803999999997
 20
95.252577000000002
 30
0.0
 40
18.905733999999999
 50
283.20910700000002
 51
284.33734299999998
  0
LINE
  5
77B
  8
_________1
 62
     7
 10
62.294400000000003
 20
76.935699999999997
 30
0.0
 11
62.294400000000003
 21
79.5608
 31
0.0
  0
ARC
  5
77C
  8
_________1
 62
     7
 10
60.673110000000001
 20
74.816656000000009
 30
0.0
 40
5.0135889999999987
 50
71.132131999999999
 51
78.865814
  0
ARC
  5
77D
  8
_________1
 62
     7
 10
61.087914000000012
 20
76.766941000000003
 30
0.0
 40
3.0200640000000001
 50
79.442220999999989
 51
89.417443000000006
  0
ARC
  5
77E
  8
_________1
 62
     7
 10
61.118977000000001
 20
76.912797999999995
 30
0.0
 40
2.8740509999999988
 50
90.007118000000006
 51
100.869601
  0
ARC
  5
77F
  8
_________1
 62
     7
 10
61.365701000000001
 20
75.432152000000002
 30
0.0
 40
4.3748139999999989
 50
100.386128
 51
109.310146
  0
LINE
  5
780
  8
_________1
 62
     7
 10
62.294400000000003
 20
76.735900000000001
 30
0.0
 11
62.294400000000003
 21
76.935699999999997
 31
0.0
  0
LINE
  5
781
  8
_________1
 62
     7
 10
62.294400000000003
 20
79.5608
 30
0.0
 11
62.294400000000003
 21
79.786799999999999
 31
0.0
  0
LINE
  5
782
  8
_________1
 62
     7
 10
57.543599999999998
 20
76.735900000000001
 30
0.0
 11
57.543599999999998
 21
76.935699999999997
 31
0.0
  0
LINE
  5
783
  8
_________1
 62
     7
 10
57.543599999999998
 20
79.5608
 30
0.0
 11
57.543599999999998
 21
79.786799999999999
 31
0.0
  0
LINE
  5
784
  8
_________1
 62
     7
 10
61.169600000000003
 20
79.961500000000001
 30
0.0
 11
59.918999999999997
 21
79.961500000000001
 31
0.0
  0
LINE
  5
785
  8
_________1
 62
     7
 10
59.918999999999997
 20
79.961500000000001
 30
0.0
 11
58.6691
 21
79.961500000000001
 31
0.0
  0
LINE
  5
786
  8
_________1
 62
     7
 10
62.294400000000003
 20
76.735900000000001
 30
0.0
 11
62.219700000000003
 21
76.686199999999999
 31
0.0
  0
LINE
  5
787
  8
_________1
 62
     7
 10
62.219700000000003
 20
76.686199999999999
 30
0.0
 11
57.618400000000001
 21
76.686199999999999
 31
0.0
  0
LINE
  5
788
  8
_________1
 62
     7
 10
57.618400000000001
 20
76.686199999999999
 30
0.0
 11
57.543599999999998
 21
76.735900000000001
 31
0.0
  0
ARC
  5
789
  8
_________1
 62
     7
 10
62.275978000000002
 20
79.753248999999997
 30
0.0
 40
0.038337
 50
61.214967000000009
 51
90.158158999999984
  0
ARC
  5
78A
  8
_________1
 62
     7
 10
62.114522999999998
 20
78.436211
 30
0.0
 40
1.3649450000000001
 50
83.211232999999993
 51
88.384203000000014
  0
ARC
  5
78B
  8
_________1
 62
     7
 10
61.606648999999997
 20
66.221874999999983
 30
0.0
 40
13.589725
 50
87.695848999999995
 51
89.304232999999996
  0
ARC
  5
78C
  8
_________1
 62
     7
 10
60.693378000000003
 20
4.5218610000000004
 30
0.0
 40
75.296458999999999
 50
89.179451999999998
 51
89.888705999999999
  0
ARC
  5
78D
  8
_________1
 62
     7
 10
59.994978000000003
 20
-298.37666899999999
 30
0.0
 40
378.19578999999999
 50
89.872028
 51
90.36004100000001
  0
LINE
  5
78E
  8
_________1
 62
     7
 10
57.618400000000001
 20
79.811700000000002
 30
0.0
 11
57.543599999999998
 21
79.786799999999999
 31
0.0
  0
LINE
  5
78F
  8
_________1
 62
     7
 10
61.469299999999997
 20
79.811700000000002
 30
0.0
 11
61.469299999999997
 21
79.936400000000006
 31
0.0
  0
LINE
  5
790
  8
_________1
 62
     7
 10
61.469299999999997
 20
79.936400000000006
 30
0.0
 11
58.368699999999997
 21
79.936400000000006
 31
0.0
  0
LINE
  5
791
  8
_________1
 62
     7
 10
58.368699999999997
 20
79.811700000000002
 30
0.0
 11
58.368699999999997
 21
79.936400000000006
 31
0.0
  0
LINE
  5
792
  8
_________1
 62
     7
 10
58.6691
 20
79.961500000000001
 30
0.0
 11
58.293599999999998
 21
80.262299999999996
 31
0.0
  0
LINE
  5
793
  8
_________1
 62
     7
 10
58.293599999999998
 20
80.262299999999996
 30
0.0
 11
58.268799999999999
 21
80.761799999999994
 31
0.0
  0
LINE
  5
794
  8
_________1
 62
     7
 10
61.569899999999997
 20
80.761799999999994
 30
0.0
 11
61.54440000000001
 21
80.262299999999996
 31
0.0
  0
LINE
  5
795
  8
_________1
 62
     7
 10
61.54440000000001
 20
80.262299999999996
 30
0.0
 11
61.169600000000003
 21
79.961500000000001
 31
0.0
  0
LINE
  5
796
  8
_________1
 62
     7
 10
61.369399999999999
 20
81.186899999999994
 30
0.0
 11
58.469299999999997
 21
81.186899999999994
 31
0.0
  0
LINE
  5
797
  8
_________1
 62
     7
 10
58.469299999999997
 20
81.186899999999994
 30
0.0
 11
58.268799999999999
 21
80.761799999999994
 31
0.0
  0
LINE
  5
798
  8
_________1
 62
     7
 10
61.569899999999997
 20
80.761799999999994
 30
0.0
 11
61.369399999999999
 21
81.186899999999994
 31
0.0
  0
LINE
  5
799
  8
_________1
 62
     7
 10
61.369399999999999
 20
83.187200000000004
 30
0.0
 11
58.469299999999997
 21
83.187200000000004
 31
0.0
  0
LINE
  5
79A
  8
_________1
 62
     7
 10
58.469299999999997
 20
81.186899999999994
 30
0.0
 11
58.469299999999997
 21
83.187200000000004
 31
0.0
  0
LINE
  5
79B
  8
_________1
 62
     7
 10
61.369399999999999
 20
81.186899999999994
 30
0.0
 11
61.369399999999999
 21
83.187200000000004
 31
0.0
  0
LINE
  5
79C
  8
_________1
 62
     7
 10
58.469299999999997
 20
83.187200000000004
 30
0.0
 11
58.293599999999998
 21
83.4876
 31
0.0
  0
LINE
  5
79D
  8
_________1
 62
     7
 10
61.54440000000001
 20
83.4876
 30
0.0
 11
61.369399999999999
 21
83.187200000000004
 31
0.0
  0
LINE
  5
79E
  8
_________1
 62
     7
 10
58.293599999999998
 20
83.4876
 30
0.0
 11
58.244
 21
83.612300000000005
 31
0.0
  0
LINE
  5
79F
  8
_________1
 62
     7
 10
58.244
 20
83.612300000000005
 30
0.0
 11
58.244
 21
83.737399999999994
 31
0.0
  0
ARC
  5
7A0
  8
_________1
 62
     7
 10
61.086018000000003
 20
83.789277999999996
 30
0.0
 40
0.535698
 50
347.80845799999997
 51
354.43883299999999
  0
ARC
  5
7A1
  8
_________1
 62
     7
 10
60.827886999999997
 20
83.840912000000003
 30
0.0
 40
0.7989220000000001
 50
333.75283899999999
 51
348.098388
  0
LINE
  5
7A2
  8
_________1
 62
     7
 10
61.619199999999999
 20
83.737399999999994
 30
0.0
 11
61.619199999999999
 21
84.437799999999996
 31
0.0
  0
LINE
  5
7A3
  8
_________1
 62
     7
 10
61.619199999999999
 20
84.437799999999996
 30
0.0
 11
58.244
 21
84.437799999999996
 31
0.0
  0
LINE
  5
7A4
  8
_________1
 62
     7
 10
58.244
 20
83.737399999999994
 30
0.0
 11
58.244
 21
84.437799999999996
 31
0.0
  0
LINE
  5
7A5
  8
_________1
 62
     7
 10
64.510000000000005
 20
65.435900000000004
 30
0.0
 11
79.755300000000005
 21
65.435900000000004
 31
0.0
  0
LINE
  5
7A6
  8
_________1
 62
     7
 10
66.878200000000007
 20
194.93700000000001
 30
0.0
 11
79.755300000000005
 21
194.93700000000001
 31
0.0
  0
LINE
  5
7A7
  8
_________1
 62
     7
 10
56.515300000000011
 20
224.68700000000001
 30
0.0
 11
79.722300000000004
 21
224.68700000000001
 31
0.0
  0
LINE
  5
7A8
  8
_________1
 62
     7
 10
25.564
 20
197.148
 30
0.0
 11
26.156500000000001
 21
194.93700000000001
 31
0.0
  0
LINE
  5
7A9
  8
_________1
 62
     7
 10
26.156500000000001
 20
194.93700000000001
 30
0.0
 11
26.748100000000001
 21
197.148
 31
0.0
  0
LINE
  5
7AA
  8
_________1
 62
     7
 10
26.748100000000001
 20
197.148
 30
0.0
 11
25.564
 21
197.148
 31
0.0
  0
LINE
  5
7AB
  8
_________1
 62
     7
 10
26.733599999999999
 20
199.995
 30
0.0
 11
26.1417
 21
202.20599999999999
 31
0.0
  0
LINE
  5
7AC
  8
_________1
 62
     7
 10
26.1417
 20
202.20599999999999
 30
0.0
 11
25.549199999999999
 21
199.995
 31
0.0
  0
LINE
  5
7AD
  8
_________1
 62
     7
 10
25.549199999999999
 20
199.995
 30
0.0
 11
26.733599999999999
 21
199.995
 31
0.0
  0
LINE
  5
7AE
  8
_________1
 62
     7
 10
26.148599999999998
 20
194.93700000000001
 30
0.0
 11
26.148599999999998
 21
202.20599999999999
 31
0.0
  0
LINE
  5
7AF
  8
_________1
 62
     7
 10
18.328900000000001
 20
197.148
 30
0.0
 11
18.921399999999998
 21
194.93700000000001
 31
0.0
  0
LINE
  5
7B0
  8
_________1
 62
     7
 10
18.921399999999998
 20
194.93700000000001
 30
0.0
 11
19.512999999999991
 21
197.148
 31
0.0
  0
LINE
  5
7B1
  8
_________1
 62
     7
 10
19.512999999999991
 20
197.148
 30
0.0
 11
18.328900000000001
 21
197.148
 31
0.0
  0
LINE
  5
7B2
  8
_________1
 62
     7
 10
19.498200000000001
 20
201.476
 30
0.0
 11
18.906600000000001
 21
203.68700000000001
 31
0.0
  0
LINE
  5
7B3
  8
_________1
 62
     7
 10
18.906600000000001
 20
203.68700000000001
 30
0.0
 11
18.3141
 21
201.476
 31
0.0
  0
LINE
  5
7B4
  8
_________1
 62
     7
 10
18.3141
 20
201.476
 30
0.0
 11
19.498200000000001
 21
201.476
 31
0.0
  0
LINE
  5
7B5
  8
_________1
 62
     7
 10
18.913499999999999
 20
194.93700000000001
 30
0.0
 11
18.913499999999999
 21
203.68700000000001
 31
0.0
  0
LINE
  5
7B6
  8
_________1
 62
     7
 10
46.348700000000001
 20
192.148
 30
0.0
 11
46.941299999999998
 21
189.93700000000001
 31
0.0
  0
LINE
  5
7B7
  8
_________1
 62
     7
 10
46.941299999999998
 20
189.93700000000001
 30
0.0
 11
47.53309999999999
 21
192.148
 31
0.0
  0
LINE
  5
7B8
  8
_________1
 62
     7
 10
47.53309999999999
 20
192.148
 30
0.0
 11
46.348700000000001
 21
192.148
 31
0.0
  0
LINE
  5
7B9
  8
_________1
 62
     7
 10
47.518300000000004
 20
192.726
 30
0.0
 11
46.9268
 21
194.93700000000001
 31
0.0
  0
LINE
  5
7BA
  8
_________1
 62
     7
 10
46.9268
 20
194.93700000000001
 30
0.0
 11
46.334200000000003
 21
192.726
 31
0.0
  0
LINE
  5
7BB
  8
_________1
 62
     7
 10
46.334200000000003
 20
192.726
 30
0.0
 11
47.518300000000004
 21
192.726
 31
0.0
  0
LINE
  5
7BC
  8
_________1
 62
     7
 10
57.707999999999998
 20
159.87700000000001
 30
0.0
 11
59.918999999999997
 21
160.47
 31
0.0
  0
LINE
  5
7BD
  8
_________1
 62
     7
 10
59.918999999999997
 20
160.47
 30
0.0
 11
57.707999999999998
 21
161.06100000000001
 31
0.0
  0
LINE
  5
7BE
  8
_________1
 62
     7
 10
57.707999999999998
 20
161.06100000000001
 30
0.0
 11
57.707999999999998
 21
159.87700000000001
 31
0.0
  0
LINE
  5
7BF
  8
_________1
 62
     7
 10
40.743200000000002
 20
161.06100000000001
 30
0.0
 11
38.5321
 21
160.47
 31
0.0
  0
LINE
  5
7C0
  8
_________1
 62
     7
 10
38.5321
 20
160.47
 30
0.0
 11
40.743200000000002
 21
159.87700000000001
 31
0.0
  0
LINE
  5
7C1
  8
_________1
 62
     7
 10
40.743200000000002
 20
159.87700000000001
 30
0.0
 11
40.743200000000002
 21
161.06100000000001
 31
0.0
  0
LINE
  5
7C2
  8
_________1
 62
     7
 10
78.637
 20
197.148
 30
0.0
 11
79.229600000000005
 21
194.93700000000001
 31
0.0
  0
LINE
  5
7C3
  8
_________1
 62
     7
 10
79.229600000000005
 20
194.93700000000001
 30
0.0
 11
79.8215
 21
197.148
 31
0.0
  0
LINE
  5
7C4
  8
_________1
 62
     7
 10
79.8215
 20
197.148
 30
0.0
 11
78.637
 21
197.148
 31
0.0
  0
LINE
  5
7C5
  8
_________1
 62
     7
 10
78.637
 20
67.646900000000002
 30
0.0
 11
79.229600000000005
 21
65.435900000000004
 31
0.0
  0
LINE
  5
7C6
  8
_________1
 62
     7
 10
79.229600000000005
 20
65.435900000000004
 30
0.0
 11
79.8215
 21
67.646900000000002
 31
0.0
  0
LINE
  5
7C7
  8
_________1
 62
     7
 10
79.8215
 20
67.646900000000002
 30
0.0
 11
78.637
 21
67.646900000000002
 31
0.0
  0
LINE
  5
7C8
  8
_________1
 62
     7
 10
33.717500000000001
 20
193.00599999999989
 30
0.0
 11
31.511299999999999
 21
193.61699999999999
 31
0.0
  0
LINE
  5
7C9
  8
_________1
 62
     7
 10
31.511299999999999
 20
193.61699999999999
 30
0.0
 11
33.117400000000004
 21
191.98500000000001
 31
0.0
  0
LINE
  5
7CA
  8
_________1
 62
     7
 10
33.117400000000004
 20
191.98500000000001
 30
0.0
 11
33.717500000000001
 21
193.00599999999989
 31
0.0
  0
LINE
  5
7CB
  8
_________1
 62
     7
 10
36.282400000000003
 20
191.011
 30
0.0
 11
38.532400000000003
 21
191.429
 31
0.0
  0
LINE
  5
7CC
  8
_________1
 62
     7
 10
38.532400000000003
 20
191.429
 30
0.0
 11
36.37510000000001
 21
192.19200000000001
 31
0.0
  0
LINE
  5
7CD
  8
_________1
 62
     7
 10
36.37510000000001
 20
192.19200000000001
 30
0.0
 11
36.282400000000003
 21
191.011
 31
0.0
  0
LINE
  5
7CE
  8
_________1
 62
     7
 10
79.807000000000002
 20
192.726
 30
0.0
 11
79.215100000000007
 21
194.93700000000001
 31
0.0
  0
LINE
  5
7CF
  8
_________1
 62
     7
 10
79.215100000000007
 20
194.93700000000001
 30
0.0
 11
78.622600000000006
 21
192.726
 31
0.0
  0
LINE
  5
7D0
  8
_________1
 62
     7
 10
78.622600000000006
 20
192.726
 30
0.0
 11
79.807000000000002
 21
192.726
 31
0.0
  0
LINE
  5
7D1
  8
_________1
 62
     7
 10
79.807000000000002
 20
222.476
 30
0.0
 11
79.215100000000007
 21
224.68700000000001
 31
0.0
  0
LINE
  5
7D2
  8
_________1
 62
     7
 10
79.215100000000007
 20
224.68700000000001
 30
0.0
 11
78.622600000000006
 21
222.476
 31
0.0
  0
LINE
  5
7D3
  8
_________1
 62
     7
 10
78.622600000000006
 20
222.476
 30
0.0
 11
79.807000000000002
 21
222.476
 31
0.0
  0
LINE
  5
7D4
  8
_________1
 62
     7
 10
46.933700000000002
 20
180.46899999999999
 30
0.0
 11
46.933700000000002
 21
194.93700000000001
 31
0.0
  0
LINE
  5
7D5
  8
_________1
 62
     7
 10
79.221999999999994
 20
65.435900000000004
 30
0.0
 11
79.221999999999994
 21
224.68700000000001
 31
0.0
  0
INSERT
  5
7D6
  8
_________1
 62
     7
  2
AIGNBL02010005
 10
0.0
 20
0.0
 30
0.0
  0
LINE
  5
7D7
  8
_________1
  6
AIGENLINE001
 62
     7
 10
59.918999999999997
 20
256.35000000000002
 30
0.0
 11
59.918999999999997
 21
271.97500000000002
 31
0.0
  0
LINE
  5
7D8
  8
_________1
  6
AIGENLINE001
 62
     7
 10
59.918999999999997
 20
62.879600000000003
 30
0.0
 11
59.918999999999997
 21
199.477
 31
0.0
  0
TEXT
  5
7D9
  8
_________2
 62
     7
 10
-77.515299999999996
 20
22.543800000000001
 30
0.0
 40
4.2168199999999993
  1
※必ず接続アダプターを止水栓に取付後、接続アダプターにフレキホースを接続してください。
 41
0.5
  0
TEXT
  5
7DA
  8
_________2
 62
     7
 10
-77.515299999999996
 20
43.460799999999992
 30
0.0
 40
4.2168199999999993
  1
※必ず水栓本体からフレキホースを外した後、水栓本体を洗面器やカウンターに
 41
0.5
  0
TEXT
  5
7DB
  8
_________2
 62
     7
 10
-77.515299999999996
 20
37.397799999999997
 30
0.0
 40
4.2168199999999993
  1
　水栓締付ナットを用いて固定ください。
 41
0.5
  0
TEXT
  5
7DC
  8
_________2
 62
     7
 10
-77.515299999999996
 20
31.334700000000002
 30
0.0
 40
4.2168199999999993
  1
　水栓本体を洗面器等に固定後、水栓本体にフレキホースを接続してください。
 41
0.5
  0
TEXT
  5
7DD
  8
_________2
 62
     7
 10
177.69399999999999
 20
34.465299999999999
 30
0.0
 40
3.6545800000000002
  1
19.09.30
 41
0.5
  0
TEXT
  5
7DE
  8
_________2
 62
     7
 10
169.50999999999999
 20
93.059899999999985
 30
0.0
 40
3.9357000000000002
  1
※快適にお使いいただくためには、0.3MPa程度の圧力をおすすめします。
 41
0.5
  0
TEXT
  5
7DF
  8
_________2
 62
     7
 10
169.50999999999999
 20
99.140100000000004
 30
0.0
 40
3.9357000000000002
  1
0.5MPa（流動圧）
 41
0.5
  0
TEXT
  5
7E0
  8
_________2
 62
     7
 10
219.08699999999999
 20
45.473100000000002
 30
0.0
 40
3.9357000000000002
  1
立水栓
 41
0.5
  0
TEXT
  5
7E1
  8
_________2
 62
     7
 10
200.4570586666666
 20
34.465299999999999
 30
0.0
 40
3.6545800000000002
  1
1 ： 4
 41
0.5
 72
     1
 11
203.86799999999999
 21
34.465299999999999
 31
0.0
  0
TEXT
  5
7E2
  8
_________2
 62
     7
 10
247.55445
 20
30.3553
 30
0.0
 40
3.9357000000000002
  1
HG13132
 41
0.5
 72
     1
 11
253.458
 21
30.3553
 31
0.0
  0
TEXT
  5
7E3
  8
_________2
 62
     7
 10
149.3328003333333
 20
34.850499999999997
 30
0.0
 40
3.6545800000000002
  1
井田
 41
0.5
 72
     1
 11
151.221
 21
34.850499999999997
 31
0.0
  0
TEXT
  5
7E4
  8
_________2
 62
     7
 10
130.69789066666669
 20
34.850499999999997
 30
0.0
 40
3.6545800000000002
  1
恋塚
 41
0.5
 72
     1
 11
132.64699999999999
 21
34.850499999999997
 31
0.0
  0
TEXT
  5
7E5
  8
_________2
 62
     7
 10
290.64778333333328
 20
12.808299999999999
 30
0.0
 40
3.3734599999999988
  1
A3
 41
0.5
 72
     2
 11
293.459
 21
12.808299999999999
 31
0.0
  0
TEXT
  5
7E6
  8
_________2
 62
     7
 10
134.495
 20
21.954699999999999
 30
0.0
 40
3.9357000000000002
  1
（社）日本水道協会認証品、G 1/2接続アダプターに逆止弁付
 41
0.5
  0
LINE
  5
7E7
  8
_________2
 62
     7
 10
315.209
 20
148.65899999999999
 30
0.0
 11
293.459
 21
148.65899999999999
 31
0.0
  0
LINE
  5
7E8
  8
_________2
 62
     7
 10
105.20699999999999
 20
17.156300000000002
 30
0.0
 11
105.20699999999999
 21
0.176045
 31
0.0
  0
LINE
  5
7E9
  8
_________2
 62
     7
 10
105.20699999999999
 20
297.178
 30
0.0
 11
105.20699999999999
 21
280.15800000000002
 31
0.0
  0
LINE
  5
7EA
  8
_________2
 62
     7
 10
-83.043899999999994
 20
148.65899999999999
 30
0.0
 11
-104.794
 21
148.65899999999999
 31
0.0
  0
INSERT
  5
7EB
  8
_________2
 62
     7
  2
AIGNBL03010002
 10
0.0
 20
0.0
 30
0.0
  0
TEXT
  5
7EC
  8
_________2
 62
     7
 10
214.51300000000001
 20
22.9269
 30
0.0
 40
3.0923400000000001
  1
図番
 41
0.5
  0
LINE
  5
7ED
  8
_________2
 62
     7
 10
213.458
 20
27.156099999999999
 30
0.0
 11
293.459
 21
27.156099999999999
 31
0.0
  0
TEXT
  5
7EE
  8
_________2
 62
     7
 10
214.51300000000001
 20
32.926699999999997
 30
0.0
 40
3.0923400000000001
  1
品番
 41
0.5
  0
TEXT
  5
7EF
  8
_________2
 62
     7
 10
214.51300000000001
 20
53.0655
 30
0.0
 40
3.0923400000000001
  1
名称
 41
0.5
  0
TEXT
  5
7F0
  8
_________2
 62
     7
 10
201.75325833333329
 20
48.069400000000002
 30
0.0
 40
3.6545800000000002
  1
mm
 41
0.5
 72
     1
 11
203.27600000000001
 21
48.069400000000002
 31
0.0
  0
TEXT
  5
7F1
  8
_________2
 62
     7
 10
195.55099999999999
 20
53.0655
 30
0.0
 40
3.0923400000000001
  1
単位
 41
0.5
  0
TEXT
  5
7F2
  8
_________2
 62
     7
 10
195.55099999999999
 20
40.658200000000001
 30
0.0
 40
3.0923400000000001
  1
尺度
 41
0.5
  0
TEXT
  5
7F3
  8
_________2
 62
     7
 10
247.55445
 20
20.354800000000001
 30
0.0
 40
3.9357000000000002
  1
HG13132
 41
0.5
 72
     1
 11
253.458
 21
20.354800000000001
 31
0.0
  0
TEXT
  5
7F4
  8
_________2
 62
     7
 10
129.49600000000001
 20
106.762
 30
0.0
 40
3.9357000000000002
  1
給水圧力
 41
0.5
  0
TEXT
  5
7F5
  8
_________2
 62
     7
 10
129.49600000000001
 20
114.52500000000001
 30
0.0
 40
3.9357000000000002
  1
用途
 41
0.5
  0
TEXT
  5
7F6
  8
_________2
 62
     7
 10
169.50999999999999
 20
114.52500000000001
 30
0.0
 40
3.9357000000000002
  1
一般住宅用（屋内用）
 41
0.5
  0
LINE
  5
7F7
  8
_________2
 62
     7
 10
145.64099999999999
 20
112.417
 30
0.0
 11
145.64099999999999
 21
91.079899999999995
 31
0.0
  0
LINE
  5
7F8
  8
_________2
 62
     7
 10
166.97200000000001
 20
120.179
 30
0.0
 11
166.97200000000001
 21
61.980800000000002
 31
0.0
  0
LINE
  5
7F9
  8
_________2
 62
     7
 10
290.16199999999998
 20
120.179
 30
0.0
 11
126.95699999999999
 21
120.179
 31
0.0
  0
LINE
  5
7FA
  8
_________2
 62
     7
 10
126.95699999999999
 20
120.179
 30
0.0
 11
126.95699999999999
 21
61.980800000000002
 31
0.0
  0
LINE
  5
7FB
  8
_________2
 62
     7
 10
126.95699999999999
 20
61.980800000000002
 30
0.0
 11
290.16199999999998
 21
61.980800000000002
 31
0.0
  0
LINE
  5
7FC
  8
_________2
 62
     7
 10
290.16199999999998
 20
61.980800000000002
 30
0.0
 11
290.16199999999998
 21
120.179
 31
0.0
  0
TEXT
  5
7FD
  8
_________2
 62
     7
 10
147.41499999999999
 20
106.762
 30
0.0
 40
3.9357000000000002
  1
最低必要水圧
 41
0.5
  0
TEXT
  5
7FE
  8
_________2
 62
     7
 10
169.50999999999999
 20
106.762
 30
0.0
 40
3.9357000000000002
  1
0.1MPa（流動圧）
 41
0.5
  0
LINE
  5
7FF
  8
_________2
 62
     7
 10
126.95699999999999
 20
112.417
 30
0.0
 11
290.16199999999998
 21
112.417
 31
0.0
  0
TEXT
  5
800
  8
_________2
 62
     7
 10
129.49600000000001
 20
85.4255
 30
0.0
 40
3.9357000000000002
  1
使用可能水質
 41
0.5
  0
TEXT
  5
801
  8
_________2
 62
     7
 10
169.50999999999999
 20
85.4255
 30
0.0
 40
3.9357000000000002
  1
水道水
 41
0.5
  0
LINE
  5
802
  8
_________2
 62
     7
 10
126.95699999999999
 20
91.079899999999995
 30
0.0
 11
290.16199999999998
 21
91.079899999999995
 31
0.0
  0
TEXT
  5
803
  8
_________2
 62
     7
 10
147.41499999999999
 20
99.140100000000004
 30
0.0
 40
3.9357000000000002
  1
最高水圧
 41
0.5
  0
LINE
  5
804
  8
_________2
 62
     7
 10
145.64099999999999
 20
104.654
 30
0.0
 11
290.16199999999998
 21
104.654
 31
0.0
  0
TEXT
  5
805
  8
_________2
 62
     7
 10
129.49600000000001
 20
77.8035
 30
0.0
 40
3.9357000000000002
  1
使用環境温度
 41
0.5
  0
TEXT
  5
806
  8
_________2
 62
     7
 10
129.49600000000001
 20
64.100899999999996
 30
0.0
 40
3.9357000000000002
  1
特記事項
 41
0.5
  0
TEXT
  5
807
  8
_________2
 62
     7
 10
169.50999999999999
 20
71.806200000000004
 30
0.0
 40
3.9357000000000002
  1
※寒冷地仕様ではありません、凍結が予想される場合は凍結予防をしてください。
 41
0.5
  0
TEXT
  5
808
  8
_________2
 62
     7
 10
169.50999999999999
 20
77.8035
 30
0.0
 40
3.9357000000000002
  1
1～40℃
 41
0.5
  0
LINE
  5
809
  8
_________2
 62
     7
 10
126.95699999999999
 20
83.317400000000006
 30
0.0
 11
290.16199999999998
 21
83.317400000000006
 31
0.0
  0
TEXT
  5
80A
  8
_________2
 62
     7
 10
169.50999999999999
 20
64.100899999999996
 30
0.0
 40
3.9357000000000002
  1
（1）フレキホース寸法公差\U+00B120。
 41
0.5
  0
TEXT
  5
80B
  8
_________2
 62
     7
 10
176.501
 20
40.658200000000001
 30
0.0
 40
3.0923400000000001
  1
日付
 41
0.5
  0
TEXT
  5
80C
  8
_________2
 62
     7
 10
139.547
 20
40.658200000000001
 30
0.0
 40
3.0923400000000001
  1
検図
 41
0.5
  0
TEXT
  5
80D
  8
_________2
 62
     7
 10
127.929
 20
26.4588
 30
0.0
 40
3.0923400000000001
  1
備考
 41
0.5
  0
TEXT
  5
80E
  8
_________2
 62
     7
 10
127.929
 20
40.658200000000001
 30
0.0
 40
3.0923400000000001
  1
製図
 41
0.5
  0
TEXT
  5
80F
  8
_________2
 62
     7
 10
133.69596533333331
 20
49.184199999999997
 30
0.0
 40
4.4979399999999989
  1
セラトレーディング株式会社
 41
0.5
 72
     1
 11
151.08799999999999
 21
49.184199999999997
 31
0.0
  0
LINE
  5
810
  8
_________2
 62
     7
 10
293.459
 20
17.156300000000002
 30
0.0
 11
-83.043899999999994
 21
17.156300000000002
 31
0.0
  0
LINE
  5
811
  8
_________2
 62
     7
 10
-83.043899999999994
 20
17.156300000000002
 30
0.0
 11
-83.043899999999994
 21
280.15800000000002
 31
0.0
  0
LINE
  5
812
  8
_________2
 62
     7
 10
-83.043899999999994
 20
280.15800000000002
 30
0.0
 11
293.459
 21
280.15800000000002
 31
0.0
  0
LINE
  5
813
  8
_________2
 62
     7
 10
293.459
 20
280.15800000000002
 30
0.0
 11
293.459
 21
17.156300000000002
 31
0.0
  0
LINE
  5
814
  8
_________2
 62
     7
 10
175.458
 20
30.656400000000001
 30
0.0
 11
175.458
 21
57.156199999999998
 31
0.0
  0
LINE
  5
815
  8
_________2
 62
     7
 10
194.458
 20
30.656400000000001
 30
0.0
 11
194.458
 21
57.156199999999998
 31
0.0
  0
LINE
  5
816
  8
_________2
 62
     7
 10
126.95699999999999
 20
17.156300000000002
 30
0.0
 11
126.95699999999999
 21
57.156199999999998
 31
0.0
  0
LINE
  5
817
  8
_________2
 62
     7
 10
213.458
 20
17.156300000000002
 30
0.0
 11
213.458
 21
57.156199999999998
 31
0.0
  0
LINE
  5
818
  8
_________2
 62
     7
 10
138.45699999999999
 20
30.656400000000001
 30
0.0
 11
138.45699999999999
 21
44.65659999999999
 31
0.0
  0
LINE
  5
819
  8
_________2
 62
     7
 10
126.95699999999999
 20
30.656400000000001
 30
0.0
 11
213.458
 21
30.656400000000001
 31
0.0
  0
LINE
  5
81A
  8
_________2
 62
     7
 10
126.95699999999999
 20
44.65659999999999
 30
0.0
 11
213.458
 21
44.65659999999999
 31
0.0
  0
LINE
  5
81B
  8
_________2
 62
     7
 10
213.458
 20
37.15590000000001
 30
0.0
 11
293.459
 21
37.15590000000001
 31
0.0
  0
LINE
  5
81C
  8
_________2
 62
     7
 10
126.95699999999999
 20
69.743300000000005
 30
0.0
 11
290.16199999999998
 21
69.743300000000005
 31
0.0
  0
LINE
  5
81D
  8
_________2
 62
     7
 10
126.95699999999999
 20
57.156199999999998
 30
0.0
 11
293.459
 21
57.156199999999998
 31
0.0
  0
ENDSEC
  0
EOF
