0
SECTION
2
HEADER
9
$ACADVER
1
AC1012
9
$DWGCODEPAGE
3
ANSI_932
9
$EXTMIN
10
0.000
20
0.000
30
0.0
9
$EXTMAX
10
630.000
20
445.500
30
0.0
9
$LIMMIN
10
0.000
20
0.000
9
$LIMMAX
10
630.000
20
445.500
9
$DIMSCALE
40
1.500000
9
$LTSCALE
40
2.000
9
$PDMODE
70
0
9
$PDSIZE
40
40.0
9
$HANDSEED
5
61b0b
9
$UNITMODE
70
0
9
$VISRETAIN
70
0
9
$PLINEGEN
70
0
9
$PSLTSCALE
70
1
9
$TREEDEPTH
70
3020
9
$CMLSTYLE
2
STANDARD
9
$CMLJUST
70
0
9
$CMLSCALE
40
1.0
0
ENDSEC
0
SECTION
2
TABLES
0
TABLE
2
VPORT
5
190
100
AcDbSymbolTable
70
2
0
VPORT
5
191
100
AcDbSymbolTableRecord
100
AcDbViewportTableRecord
2
*ACTIVE
70
0
10
0.0
20
0.0
11
1.0
21
1.0
12
315.000
22
222.750
13
0.0
23
0.0
14
1.0
24
1.0
15
0.0
25
0.0
16
0.0
26
0.0
36
1.0
17
0.0
27
0.0
37
0.0
40
456.522
41
2.0
42
50.0
43
0.0
44
0.0
50
0.0
51
0.0
71
0
72
1000
73
1
74
1
75
0
76
0
77
0
78
0
0
ENDTAB
0
TABLE
2
LTYPE
5
1f4
100
AcDbSymbolTable
70
9
0
LTYPE
5
1f5
100
AcDbSymbolTableRecord
100
AcDbLinetypeTableRecord
2
BYBLOCK
70
 64
3

72
 65
73
  0
40
0.0
0
LTYPE
5
1f6
100
AcDbSymbolTableRecord
100
AcDbLinetypeTableRecord
2
BYLAYER
70
 64
3

72
 65
73
  0
40
0.0
0
LTYPE
5
1f7
100
AcDbSymbolTableRecord
100
AcDbLinetypeTableRecord
2
CONTINUOUS
70
64
3
SolidLine
72
65
73
0
40
0.0
0
LTYPE
5
1f8
100
AcDbSymbolTableRecord
100
AcDbLinetypeTableRecord
2
DOT
70
64
3
--  --  --  --  --  --  --  --     
72
65
73
2
40
3.000
49
1.000
74
0
49
-2.000
74
0
0
LTYPE
5
1f9
100
AcDbSymbolTableRecord
100
AcDbLinetypeTableRecord
2
DASHED
70
64
3
----    ----    ----    ----    
72
65
73
2
40
5.000
49
2.000
74
0
49
-3.000
74
0
0
LTYPE
5
1fa
100
AcDbSymbolTableRecord
100
AcDbLinetypeTableRecord
2
DASHED2
70
64
3
------  ------  ------  ------ 
72
65
73
2
40
10.000
49
4.000
74
0
49
-6.000
74
0
0
LTYPE
5
1fb
100
AcDbSymbolTableRecord
100
AcDbLinetypeTableRecord
2
CENTER
70
64
3
----- - ----- - ----- - ----- - 
72
65
73
4
40
10.000
49
6.000
74
0
49
-3.000
74
0
49
1.000
74
0
49
-3.000
74
0
0
LTYPE
5
1fc
100
AcDbSymbolTableRecord
100
AcDbLinetypeTableRecord
2
CENTER2
70
64
3
----------  --  ----------  -- 
72
65
73
4
40
17.000
49
12.000
74
0
49
-5.000
74
0
49
2.000
74
0
49
-5.000
74
0
0
LTYPE
5
1fd
100
AcDbSymbolTableRecord
100
AcDbLinetypeTableRecord
2
PHANTOM
70
64
3
--- - - --- - - --- - - --- - -
72
65
73
6
40
13.000
49
5.000
74
0
49
-3.000
74
0
49
1.000
74
0
49
-3.000
74
0
49
1.000
74
0
49
-3.000
74
0
0
LTYPE
5
1fe
100
AcDbSymbolTableRecord
100
AcDbLinetypeTableRecord
2
PHANTOM2
70
64
3
--------  -  -  --------  -  -
72
65
73
6
40
20.000
49
6.000
74
0
49
-5.000
74
0
49
2.000
74
0
49
-5.000
74
0
49
2.000
74
0
49
-5.000
74
0
0
LTYPE
5
1ff
100
AcDbSymbolTableRecord
100
AcDbLinetypeTableRecord
2
HIDDEN
70
64
3
-   -   -   -   -   -   -   -   
72
65
73
2
40
3.000
49
0.500
74
0
49
-2.500
74
0
0
ENDTAB
0
TABLE
2
STYLE
5
200
100
AcDbSymbolTable
70
1
0
STYLE
5
201
100
AcDbSymbolTableRecord
100
AcDbTextStyleTableRecord
2
STANDARD
70
0
40
0.0
41
1.0
50
0.0
71
0
42
0.0
3
txt.shx
4
extfont.shx
0
STYLE
5
202
100
AcDbSymbolTableRecord
100
AcDbTextStyleTableRecord
2
TATEGAKI
70
4
40
0.0
41
1.0
50
0.0
71
0
42
0.0
3
txt.shx
4
extfont.shx
0
STYLE
5
203
100
AcDbSymbolTableRecord
100
AcDbTextStyleTableRecord
2
 
70
0
40
0.0
41
0.75
50
0.0
71
0
42
0.0
3
txt.shx
4
extfont.shx
0
STYLE
5
204
100
AcDbSymbolTableRecord
100
AcDbTextStyleTableRecord
2
_Gothic_
70
0
40
1.0
41
1.0
50
0.0
71
0
42
10.0
3

4

1001
ACAD
1000
MS Gothic
1071
32817
0
STYLE
5
205
100
AcDbSymbolTableRecord
100
AcDbTextStyleTableRecord
2
_TateGothic_
70
4
40
0.0
41
1.0
50
0.0
71
0
42
0.0
3
@MS Gothic
4

0
ENDTAB
0
TABLE
2
VIEW
5
206
100
AcDbSymbolTable
70
0
0
ENDTAB
0
TABLE
2
UCS
5
207
100
AcDbSymbolTable
70
0
0
ENDTAB
0
TABLE
2
APPID
5
208
100
AcDbSymbolTable
70
1
0
APPID
5
209
100
AcDbSymbolTableRecord
100
AcDbRegAppTableRecord
2
ACAD
70
0
0
ENDTAB
0
TABLE
2
DIMSTYLE
5
403
100
AcDbSymbolTable
70
1
0
DIMSTYLE
105
404
100
AcDbSymbolTableRecord
100
AcDbDimStyleTableRecord
2
JAC_DIM
3

4

5

6

7

70
0
40
1.5
41
3.000
42
0.000
43
0.0
44
0.0
45
0.0
46
0.0
47
0.0
48
0.0
73
0
74
0
77
1
78
8
140
0.000
170
0
171
2
172
0
173
0
174
0
175
0
176
0
177
0
178
0
270
2
271
0
272
0
273
2
274
2
340
201
275
0
280
0
281
0
282
0
283
0
284
0
285
0
286
0
287
3
288
0
0
ENDTAB
0
TABLE
2
BLOCK_RECORD
5
405
100
AcDbSymbolTable
70
0
0
BLOCK_RECORD
5
406
100
AcDbSymbolTableRecord
100
AcDbBlockTableRecord
2
*MODEL_SPACE
0
BLOCK_RECORD
5
407
100
AcDbSymbolTableRecord
100
AcDbBlockTableRecord
2
*PAPER_SPACE
0
BLOCK_RECORD
5
408
100
AcDbSymbolTableRecord
100
AcDbBlockTableRecord
2
_JACCONVERT_
0
ENDTAB
0
TABLE
2
LAYER
5
409
100
AcDbSymbolTable
70
10
0
LAYER
5
40a
100
AcDbSymbolTableRecord
100
AcDbLayerTableRecord
2
0
70
0
62
7
6
CONTINUOUS
0
LAYER
5
40b
100
AcDbSymbolTableRecord
100
AcDbLayerTableRecord
2
0-3
70
0
62
7
6
CONTINUOUS
0
LAYER
5
40c
100
AcDbSymbolTableRecord
100
AcDbLayerTableRecord
2
F-0
70
0
62
7
6
CONTINUOUS
0
LAYER
5
40d
100
AcDbSymbolTableRecord
100
AcDbLayerTableRecord
2
F-F_J_ADD
70
0
62
-7
6
CONTINUOUS
0
ENDTAB
0
ENDSEC
0
SECTION
2
BLOCKS
0
BLOCK
5
40e
100
AcDbEntity
67
1
8
0
100
AcDbBlockBegin
2
*MODEL_SPACE
70
0
10
0.0
20
0.0
30
0.0
3
*MODEL_SPACE
1

0
ENDBLK
5
40f
100
AcDbEntity
8
0
100
AcDbBlockEnd
0
BLOCK
5
410
100
AcDbEntity
67
1
8
0
100
AcDbBlockBegin
2
*PAPER_SPACE
70
0
10
0.0
20
0.0
30
0.0
3
*PAPER_SPACE
1

0
ENDBLK
5
411
100
AcDbEntity
67
1
8
0
100
AcDbBlockEnd
0
BLOCK
5
412
100
AcDbEntity
8
0
100
AcDbBlockBegin
2
_JACCONVERT_
70
2
10
0.0
20
0.0
30
0.0
3
_JACCONVERT_
1
_JACCONVERT_
0
ATTDEF
5
413
100
AcDbEntity
8
0
62
0
100
AcDbText
10
0.0
20
0.0
30
0.0
40
1.0
1
User:33307E081580834E08362083700830930835B08108A0834F0837B0960FA093
100
AcDbAttributeDefinition
3

2
USER
70
8
0
ATTDEF
5
414
100
AcDbEntity
8
0
62
0
100
AcDbText
10
0.0
20
2.0
30
0.0
40
1.0
1
Date:20/08/04 14:45
100
AcDbAttributeDefinition
3

2
REVDATE
70
8
0
ATTDEF
5
415
100
AcDbEntity
8
0
62
0
100
AcDbText
10
0.0
20
4.0
30
0.0
40
1.0
1
File:W60_fulldoorpanel_handle_JWW.dxf
100
AcDbAttributeDefinition
3

2
FNAME
70
8
0
ATTDEF
5
416
100
AcDbEntity
8
0
62
0
100
AcDbText
10
0.0
20
6.0
30
0.0
40
1.0
1
JacConvert Version3.11 copyright (c) 2001-2016 K.Nakahara
100
AcDbAttributeDefinition
3

2
VER
70
8
0
ENDBLK
5
417
100
AcDbEntity
67
1
8
0
100
AcDbBlockEnd
0
ENDSEC
0
SECTION
2
ENTITIES
0
LINE
5
418
100
AcDbEntity
8
F-0
6
CONTINUOUS
62
2
100
AcDbLine
10
25.178326374589
20
418.973763596003
30
0.0
11
25.178326374589
21
406.973763596003
31
0.0
0
LINE
5
419
100
AcDbEntity
8
F-0
6
CONTINUOUS
62
2
100
AcDbLine
10
619.500000000000
20
15.500004123997
30
0.0
11
619.500000000000
21
429.999995876003
31
0.0
0
POLYLINE
5
41a
100
AcDbEntity
8
F-0
6
CONTINUOUS
62
  2
100
AcDb2dPolyline
66
1
10
0.0
20
0.0
30
0.0
70
0
0
VERTEX
5
41b
100
AcDbEntity
8
F-0
6
CONTINUOUS
62
  2
100
AcDbVertex
100
AcDb2dVertex
10
10.500000000000
20
15.500004123997
30
0.0
0
VERTEX
5
41c
100
AcDbEntity
8
F-0
6
CONTINUOUS
62
  2
100
AcDbVertex
100
AcDb2dVertex
10
10.500000000000
20
429.999995876003
30
0.0
0
VERTEX
5
41d
100
AcDbEntity
8
F-0
6
CONTINUOUS
62
  2
100
AcDbVertex
100
AcDb2dVertex
10
619.500000000000
20
429.999995876003
30
0.0
0
SEQEND
5
41e
100
AcDbEntity
8
F-0
0
LINE
5
41f
100
AcDbEntity
8
F-0
6
CONTINUOUS
62
2
100
AcDbLine
10
315.000000000000
20
429.999995876003
30
0.0
11
315.000000000000
21
452.499995876003
31
0.0
0
LINE
5
420
100
AcDbEntity
8
F-0
6
CONTINUOUS
62
2
100
AcDbLine
10
642.000000000000
20
222.750000000000
30
0.0
11
619.500000000000
21
222.750000000000
31
0.0
0
LINE
5
421
100
AcDbEntity
8
F-0
6
CONTINUOUS
62
2
100
AcDbLine
10
10.500000000000
20
15.500004123997
30
0.0
11
619.500000000000
21
15.500004123997
31
0.0
0
LINE
5
422
100
AcDbEntity
8
F-0
6
CONTINUOUS
62
2
100
AcDbLine
10
315.000000000000
20
15.500004123997
30
0.0
11
315.000000000000
21
-6.999995876003
31
0.0
0
LINE
5
423
100
AcDbEntity
8
F-0
6
CONTINUOUS
62
2
100
AcDbLine
10
-12.000000000000
20
222.750000000000
30
0.0
11
10.500000000000
21
222.750000000000
31
0.0
0
LINE
5
424
100
AcDbEntity
8
F-0
6
CONTINUOUS
62
7
100
AcDbLine
10
467.250000000000
20
23.000004123997
30
0.0
11
526.125000000000
21
23.000004123997
31
0.0
0
TEXT
5
425
100
AcDbEntity
8
F-0
62
7
100
AcDbText
10
511.618
20
17.691
30
0.0
40
3.787
41
0.999
50
0.000
1
製図
72
1
11
516.688
21
19.625
31
0.0
100
AcDbText
73
2
0
TEXT
5
426
100
AcDbEntity
8
F-0
62
7
100
AcDbText
10
472.367
20
17.691
30
0.0
40
3.787
41
0.999
50
0.000
1
承認
72
1
11
477.437
21
19.625
31
0.0
100
AcDbText
73
2
0
TEXT
5
427
100
AcDbEntity
8
F-0
62
7
100
AcDbText
10
491.992
20
17.691
30
0.0
40
3.787
41
0.999
50
0.000
1
照査
72
1
11
497.062
21
19.625
31
0.0
100
AcDbText
73
2
0
LINE
5
428
100
AcDbEntity
8
F-0
6
CONTINUOUS
62
2
100
AcDbLine
10
526.125000000000
20
30.500004123997
30
0.0
11
619.500000000000
21
30.500004123997
31
0.0
0
LINE
5
429
100
AcDbEntity
8
F-0
6
CONTINUOUS
62
2
100
AcDbLine
10
467.250000000000
20
41.750004123997
30
0.0
11
619.500000000000
21
41.750004123997
31
0.0
0
LINE
5
42a
100
AcDbEntity
8
F-0
6
CONTINUOUS
62
2
100
AcDbLine
10
526.125000000000
20
41.750004123997
30
0.0
11
526.125000000000
21
15.500004123997
31
0.0
0
LINE
5
42b
100
AcDbEntity
8
F-0
6
CONTINUOUS
62
7
100
AcDbLine
10
506.500000000000
20
41.750004123997
30
0.0
11
506.500000000000
21
15.500004123997
31
0.0
0
LINE
5
42c
100
AcDbEntity
8
F-0
6
CONTINUOUS
62
7
100
AcDbLine
10
486.875000000000
20
64.250004123997
30
0.0
11
486.875000000000
21
15.500004123997
31
0.0
0
TEXT
5
42d
100
AcDbEntity
8
F-0
62
7
100
AcDbText
10
469.742
20
57.066
30
0.0
40
3.787
41
0.999
50
0.000
1
製品名
72
1
11
477.437
21
59.000
31
0.0
100
AcDbText
73
2
0
POLYLINE
5
42e
100
AcDbEntity
8
F-0
6
CONTINUOUS
62
  2
100
AcDb2dPolyline
66
1
10
0.0
20
0.0
30
0.0
70
0
0
VERTEX
5
42f
100
AcDbEntity
8
F-0
6
CONTINUOUS
62
  2
100
AcDbVertex
100
AcDb2dVertex
10
467.250000000000
20
15.500004123997
30
0.0
0
VERTEX
5
430
100
AcDbEntity
8
F-0
6
CONTINUOUS
62
  2
100
AcDbVertex
100
AcDb2dVertex
10
467.250000000000
20
64.250004123997
30
0.0
0
VERTEX
5
431
100
AcDbEntity
8
F-0
6
CONTINUOUS
62
  2
100
AcDbVertex
100
AcDb2dVertex
10
619.500000000000
20
64.250004123997
30
0.0
0
SEQEND
5
432
100
AcDbEntity
8
F-0
0
LINE
5
433
100
AcDbEntity
8
F-0
6
CONTINUOUS
62
7
100
AcDbLine
10
545.750000000000
20
41.750004123997
30
0.0
11
545.750000000000
21
30.500004123997
31
0.0
0
TEXT
5
434
100
AcDbEntity
8
F-0
62
7
100
AcDbText
10
528.617
20
34.566
30
0.0
40
3.787
41
0.999
50
0.000
1
作図日
72
1
11
536.313
21
36.500
31
0.0
100
AcDbText
73
2
0
LINE
5
435
100
AcDbEntity
8
F-0
6
CENTER
62
7
100
AcDbLine
10
616.579045627142
20
36.125004123997
30
0.0
11
605.170954367857
21
36.125004123997
31
0.0
0
LINE
5
436
100
AcDbEntity
8
F-0
6
CENTER
62
7
100
AcDbLine
10
607.868434074486
20
38.859948826551
30
0.0
11
607.868434074486
21
33.390059421497
31
0.0
0
CIRCLE
5
437
100
AcDbEntity
8
F-0
6
CONTINUOUS
62
7
100
AcDbCircle
10
607.868434074486
20
36.125004123997
30
0.0
40
0.974089894060
0
CIRCLE
5
438
100
AcDbEntity
8
F-0
6
CONTINUOUS
62
7
100
AcDbCircle
10
607.868434074486
20
36.125004123997
30
0.0
40
2.063134495862
0
TEXT
5
439
100
AcDbEntity
8
F-0
62
7
100
AcDbText
10
585.117
20
45.816
30
0.0
40
3.787
41
0.999
50
0.000
1
縮　尺
72
1
11
592.812
21
47.750
31
0.0
100
AcDbText
73
2
0
LINE
5
43a
100
AcDbEntity
8
F-0
6
CONTINUOUS
62
7
100
AcDbLine
10
611.367440234215
20
37.099094018057
30
0.0
11
615.863239744215
21
38.188138619859
31
0.0
0
POLYLINE
5
43b
100
AcDbEntity
8
F-0
6
CONTINUOUS
62
  7
100
AcDb2dPolyline
66
1
10
0.0
20
0.0
30
0.0
70
0
0
VERTEX
5
43c
100
AcDbEntity
8
F-0
6
CONTINUOUS
62
  7
100
AcDbVertex
100
AcDb2dVertex
10
611.367440234215
20
37.099094018057
30
0.0
0
VERTEX
5
43d
100
AcDbEntity
8
F-0
6
CONTINUOUS
62
  7
100
AcDbVertex
100
AcDb2dVertex
10
611.367440234215
20
35.150914229937
30
0.0
0
VERTEX
5
43e
100
AcDbEntity
8
F-0
6
CONTINUOUS
62
  7
100
AcDbVertex
100
AcDb2dVertex
10
615.863239744215
20
34.061869628135
30
0.0
0
SEQEND
5
43f
100
AcDbEntity
8
F-0
0
LINE
5
440
100
AcDbEntity
8
F-0
6
CONTINUOUS
62
7
100
AcDbLine
10
615.863239744215
20
38.188138619859
30
0.0
11
615.863239744215
21
34.061869628135
31
0.0
0
TEXT
5
441
100
AcDbEntity
8
F-0
62
7
100
AcDbText
10
585.117
20
34.566
30
0.0
40
3.787
41
0.999
50
0.000
1
投影法
72
1
11
592.812
21
36.500
31
0.0
100
AcDbText
73
2
0
LINE
5
442
100
AcDbEntity
8
F-0
6
CONTINUOUS
62
2
100
AcDbLine
10
582.624999995000
20
53.000004123997
30
0.0
11
582.624999995000
21
30.500004123997
31
0.0
0
LINE
5
443
100
AcDbEntity
8
F-0
6
CONTINUOUS
62
7
100
AcDbLine
10
602.249999995000
20
53.000004123997
30
0.0
11
602.249999995000
21
30.500004123997
31
0.0
0
LINE
5
444
100
AcDbEntity
8
F-0
6
CONTINUOUS
62
7
100
AcDbLine
10
467.250000000000
20
53.000004123997
30
0.0
11
582.624999995000
21
53.000004123997
31
0.0
0
LINE
5
445
100
AcDbEntity
8
F-0
6
CONTINUOUS
62
2
100
AcDbLine
10
582.624999995000
20
53.000004123997
30
0.0
11
619.500000000000
21
53.000004123997
31
0.0
0
TEXT
5
446
100
AcDbEntity
8
F-0
62
7
100
AcDbText
10
469.742
20
45.816
30
0.0
40
3.787
1
品　番
41
0.999
50
0.000
100
AcDbText
0
POLYLINE
5
447
100
AcDbEntity
8
F-0
6
CONTINUOUS
62
  2
100
AcDb2dPolyline
66
1
10
0.0
20
0.0
30
0.0
70
0
0
VERTEX
5
448
100
AcDbEntity
8
F-0
6
CONTINUOUS
62
  2
100
AcDbVertex
100
AcDb2dVertex
10
25.178326374589
20
418.973763596003
30
0.0
0
VERTEX
5
449
100
AcDbEntity
8
F-0
6
CONTINUOUS
62
  2
100
AcDbVertex
100
AcDb2dVertex
10
157.704910530962
20
418.973763596003
30
0.0
0
VERTEX
5
44a
100
AcDbEntity
8
F-0
6
CONTINUOUS
62
  2
100
AcDbVertex
100
AcDb2dVertex
10
157.704910530962
20
406.973763596003
30
0.0
0
SEQEND
5
44b
100
AcDbEntity
8
F-0
0
LINE
5
44c
100
AcDbEntity
8
F-0
6
CONTINUOUS
62
2
100
AcDbLine
10
25.178326374589
20
406.973763596003
30
0.0
11
157.704910530962
21
406.973763596003
31
0.0
0
MTEXT
5
44d
100
AcDbEntity
8
F-0
62
7
100
AcDbMText
10
553.555
20
59.270
30
0.0
40
3.576
41
0.000
71
5
72
1
1
\W1.134;ボッシュ　ビルトイン食器洗い機　幅６０{\W0.817;cm}
7
STANDARD
11
1.00000
21
0.00000
31
0.0
0
MTEXT
5
44e
100
AcDbEntity
8
F-0
62
7
100
AcDbMText
10
573.023
20
23.315
30
0.0
40
4.172
41
0.000
71
5
72
1
1
\W0.972;株式会社　{\W0.700;G-Place}
7
STANDARD
11
1.00000
21
0.00000
31
0.0
0
MTEXT
5
44f
100
AcDbEntity
8
F-0
62
7
100
AcDbMText
10
92.057
20
413.709
30
0.0
40
4.769
41
0.000
71
5
72
1
1
\W1.093;幅{\W0.787;60cm}モデル・フルドア面材ハンドル図面
7
STANDARD
11
1.00000
21
0.00000
31
0.0
0
ARC
5
450
100
AcDbEntity
8
0-3
6
CONTINUOUS
62
2
100
AcDbCircle
10
79.316357682585
20
213.666879343486
30
0.0
40
7.500000000000
100
AcDbArc
50
90.000000000000
51
180.000000000000
0
LINE
5
451
100
AcDbEntity
8
0-3
6
CONTINUOUS
62
2
100
AcDbLine
10
452.316357682585
20
221.166879343486
30
0.0
11
79.316357682585
21
221.166879343486
31
0.0
0
ARC
5
452
100
AcDbEntity
8
0-3
6
CONTINUOUS
62
2
100
AcDbCircle
10
452.316357682585
20
213.666879343486
30
0.0
40
7.500000000000
100
AcDbArc
50
0.000000000000
51
90.000000000000
0
ARC
5
453
100
AcDbEntity
8
0-3
6
CONTINUOUS
62
2
100
AcDbCircle
10
79.316357682585
20
213.666879343486
30
0.0
40
19.500000000000
100
AcDbArc
50
90.000000000000
51
180.000000000000
0
LINE
5
454
100
AcDbEntity
8
0-3
6
CONTINUOUS
62
2
100
AcDbLine
10
452.316357682585
20
233.166879343486
30
0.0
11
79.316357682585
21
233.166879343486
31
0.0
0
ARC
5
455
100
AcDbEntity
8
0-3
6
CONTINUOUS
62
2
100
AcDbCircle
10
452.316357682585
20
213.666879343486
30
0.0
40
19.500000000000
100
AcDbArc
50
0.000000000000
51
90.000000000000
0
LINE
5
456
100
AcDbEntity
8
0-3
6
CONTINUOUS
62
2
100
AcDbLine
10
71.816357682585
20
213.666879343486
30
0.0
11
71.816357682585
21
196.166879343486
31
0.0
0
LINE
5
457
100
AcDbEntity
8
0-3
6
CONTINUOUS
62
2
100
AcDbLine
10
59.816357682585
20
196.166879343486
30
0.0
11
71.816357682585
21
196.166879343486
31
0.0
0
LINE
5
458
100
AcDbEntity
8
0-3
6
CONTINUOUS
62
2
100
AcDbLine
10
59.816357682585
20
213.666879343486
30
0.0
11
59.816357682585
21
196.166879343486
31
0.0
0
POLYLINE
5
459
100
AcDbEntity
8
0-3
6
CONTINUOUS
62
  2
100
AcDb2dPolyline
66
1
10
0.0
20
0.0
30
0.0
70
0
0
VERTEX
5
45a
100
AcDbEntity
8
0-3
6
CONTINUOUS
62
  2
100
AcDbVertex
100
AcDb2dVertex
10
459.816357682585
20
213.666879343486
30
0.0
0
VERTEX
5
45b
100
AcDbEntity
8
0-3
6
CONTINUOUS
62
  2
100
AcDbVertex
100
AcDb2dVertex
10
459.816357682585
20
196.166879343486
30
0.0
0
VERTEX
5
45c
100
AcDbEntity
8
0-3
6
CONTINUOUS
62
  2
100
AcDbVertex
100
AcDb2dVertex
10
471.816357682585
20
196.166879343486
30
0.0
0
SEQEND
5
45d
100
AcDbEntity
8
0-3
0
LINE
5
45e
100
AcDbEntity
8
0-3
6
CONTINUOUS
62
2
100
AcDbLine
10
471.816357682585
20
213.666879343486
30
0.0
11
471.816357682585
21
196.166879343486
31
0.0
0
LINE
5
45f
100
AcDbEntity
8
0-3
6
CONTINUOUS
62
7
100
AcDbLine
10
65.816357682585
20
178.666879343486
30
0.0
11
65.816357682585
21
213.666879343486
31
0.0
0
LINE
5
460
100
AcDbEntity
8
0-3
6
CONTINUOUS
62
7
100
AcDbLine
10
465.816357682585
20
178.666879343486
30
0.0
11
465.816357682585
21
213.666879343486
31
0.0
0
LINE
5
461
100
AcDbEntity
8
0-3
6
CONTINUOUS
62
7
100
AcDbLine
10
65.816357682585
20
318.581186622421
30
0.0
11
65.816357682585
21
328.873847304806
31
0.0
0
LINE
5
462
100
AcDbEntity
8
0-3
6
CONTINUOUS
62
7
100
AcDbLine
10
60.670027341393
20
323.727516963614
30
0.0
11
70.962688023777
21
323.727516963614
31
0.0
0
LINE
5
463
100
AcDbEntity
8
0-3
6
CONTINUOUS
62
7
100
AcDbLine
10
465.816357682585
20
318.581186622422
30
0.0
11
465.816357682585
21
328.873847304806
31
0.0
0
LINE
5
464
100
AcDbEntity
8
0-3
6
CONTINUOUS
62
7
100
AcDbLine
10
470.962688023778
20
323.727516963614
30
0.0
11
460.670027341393
21
323.727516963614
31
0.0
0
LINE
5
465
100
AcDbEntity
8
0-3
6
CONTINUOUS
62
4
100
AcDbLine
10
59.816357682585
20
163.908947621800
30
0.0
11
65.816357682585
21
163.908947621800
31
0.0
0
POLYLINE
5
466
100
AcDbEntity
  8
0-3
6
CONTINUOUS
62
4
100
AcDb2dPolyline
66
1
10
0
20
0
70
1
40
0.600
41
0.600
0
VERTEX
5
467
100
AcDbEntity
  8
0-3
6
CONTINUOUS
62
4
100
AcDbVertex
100
AcDb2dVertex
10
59.516
20
163.909
30
0.0
42
1.000
0
VERTEX
5
468
100
AcDbEntity
  8
0-3
6
CONTINUOUS
62
4
100
AcDbVertex
100
AcDb2dVertex
10
60.116
20
163.909
30
0.0
42
1.000
0
SEQEND
5
469
100
AcDbEntity
  8
0-3
0
POLYLINE
5
46a
100
AcDbEntity
  8
0-3
6
CONTINUOUS
62
4
100
AcDb2dPolyline
66
1
10
0
20
0
70
1
40
0.600
41
0.600
0
VERTEX
5
46b
100
AcDbEntity
  8
0-3
6
CONTINUOUS
62
4
100
AcDbVertex
100
AcDb2dVertex
10
65.516
20
163.909
30
0.0
42
1.000
0
VERTEX
5
46c
100
AcDbEntity
  8
0-3
6
CONTINUOUS
62
4
100
AcDbVertex
100
AcDb2dVertex
10
66.116
20
163.909
30
0.0
42
1.000
0
SEQEND
5
46d
100
AcDbEntity
  8
0-3
0
LINE
5
46e
100
AcDbEntity
8
0-3
6
CONTINUOUS
62
4
100
AcDbLine
10
59.816357682585
20
163.908947621800
30
0.0
11
59.816357682585
21
191.077146583767
31
0.0
0
TEXT
5
46f
100
AcDbEntity
8
0-3
62
7
100
AcDbText
10
61.556
20
165.580
30
0.0
40
5.049
41
0.568
50
0.000
1
6
72
1
11
63.244
21
165.019
31
0.0
100
AcDbText
73
1
0
LINE
5
470
100
AcDbEntity
8
0-3
6
CONTINUOUS
62
4
100
AcDbLine
10
65.816357682585
20
163.908947621800
30
0.0
11
465.816357682585
21
163.908947621800
31
0.0
0
POLYLINE
5
471
100
AcDbEntity
  8
0-3
6
CONTINUOUS
62
4
100
AcDb2dPolyline
66
1
10
0
20
0
70
1
40
0.600
41
0.600
0
VERTEX
5
472
100
AcDbEntity
  8
0-3
6
CONTINUOUS
62
4
100
AcDbVertex
100
AcDb2dVertex
10
465.516
20
163.909
30
0.0
42
1.000
0
VERTEX
5
473
100
AcDbEntity
  8
0-3
6
CONTINUOUS
62
4
100
AcDbVertex
100
AcDb2dVertex
10
466.116
20
163.909
30
0.0
42
1.000
0
SEQEND
5
474
100
AcDbEntity
  8
0-3
0
TEXT
5
475
100
AcDbEntity
8
0-3
62
7
100
AcDbText
10
261.181
20
165.580
30
0.0
40
5.049
41
0.672
50
0.000
1
400
72
1
11
266.244
21
165.019
31
0.0
100
AcDbText
73
1
0
LINE
5
476
100
AcDbEntity
8
0-3
6
CONTINUOUS
62
4
100
AcDbLine
10
465.816357682585
20
163.908947621800
30
0.0
11
471.816357682585
21
163.908947621800
31
0.0
0
TEXT
5
477
100
AcDbEntity
8
0-3
62
4
100
AcDbText
10
467.556
20
165.580
30
0.0
40
5.049
41
0.568
50
0.000
1
6
72
1
11
469.244
21
165.019
31
0.0
100
AcDbText
73
1
0
POLYLINE
5
478
100
AcDbEntity
  8
0-3
6
CONTINUOUS
62
4
100
AcDb2dPolyline
66
1
10
0
20
0
70
1
40
0.600
41
0.600
0
VERTEX
5
479
100
AcDbEntity
  8
0-3
6
CONTINUOUS
62
4
100
AcDbVertex
100
AcDb2dVertex
10
471.516
20
163.909
30
0.0
42
1.000
0
VERTEX
5
47a
100
AcDbEntity
  8
0-3
6
CONTINUOUS
62
4
100
AcDbVertex
100
AcDb2dVertex
10
472.116
20
163.909
30
0.0
42
1.000
0
SEQEND
5
47b
100
AcDbEntity
  8
0-3
0
LINE
5
47c
100
AcDbEntity
8
0-3
6
CONTINUOUS
62
4
100
AcDbLine
10
471.816357682585
20
163.908947621800
30
0.0
11
471.816357682585
21
191.077146583767
31
0.0
0
LINE
5
47d
100
AcDbEntity
8
0-3
6
CONTINUOUS
62
4
100
AcDbLine
10
65.816357682585
20
163.908947621800
30
0.0
11
65.816357682585
21
175.476289130023
31
0.0
0
LINE
5
47e
100
AcDbEntity
8
0-3
6
CONTINUOUS
62
4
100
AcDbLine
10
465.816357682585
20
163.908947621800
30
0.0
11
465.816357682585
21
175.476289130023
31
0.0
0
LINE
5
47f
100
AcDbEntity
8
0-3
6
CONTINUOUS
62
4
100
AcDbLine
10
71.816357682585
20
175.476289130023
30
0.0
11
459.816357682585
21
175.476289130023
31
0.0
0
TEXT
5
480
100
AcDbEntity
8
0-3
62
4
100
AcDbText
10
261.181
20
177.147
30
0.0
40
5.049
41
0.563
50
0.000
1
388
72
1
11
266.244
21
176.586
31
0.0
100
AcDbText
73
1
0
POLYLINE
5
481
100
AcDbEntity
  8
0-3
6
CONTINUOUS
62
4
100
AcDb2dPolyline
66
1
10
0
20
0
70
1
40
0.600
41
0.600
0
VERTEX
5
482
100
AcDbEntity
  8
0-3
6
CONTINUOUS
62
4
100
AcDbVertex
100
AcDb2dVertex
10
71.516
20
175.476
30
0.0
42
1.000
0
VERTEX
5
483
100
AcDbEntity
  8
0-3
6
CONTINUOUS
62
4
100
AcDbVertex
100
AcDb2dVertex
10
72.116
20
175.476
30
0.0
42
1.000
0
SEQEND
5
484
100
AcDbEntity
  8
0-3
0
POLYLINE
5
485
100
AcDbEntity
  8
0-3
6
CONTINUOUS
62
4
100
AcDb2dPolyline
66
1
10
0
20
0
70
1
40
0.600
41
0.600
0
VERTEX
5
486
100
AcDbEntity
  8
0-3
6
CONTINUOUS
62
4
100
AcDbVertex
100
AcDb2dVertex
10
459.516
20
175.476
30
0.0
42
1.000
0
VERTEX
5
487
100
AcDbEntity
  8
0-3
6
CONTINUOUS
62
4
100
AcDbVertex
100
AcDb2dVertex
10
460.116
20
175.476
30
0.0
42
1.000
0
SEQEND
5
488
100
AcDbEntity
  8
0-3
0
LINE
5
489
100
AcDbEntity
8
0-3
6
CONTINUOUS
62
4
100
AcDbLine
10
71.816357682585
20
175.476289130023
30
0.0
11
71.816357682585
21
191.077146583767
31
0.0
0
LINE
5
48a
100
AcDbEntity
8
0-3
6
CONTINUOUS
62
4
100
AcDbLine
10
459.816357682585
20
175.476289130023
30
0.0
11
459.816357682585
21
191.077146583767
31
0.0
0
LINE
5
48b
100
AcDbEntity
8
0-3
6
CONTINUOUS
62
2
100
AcDbLine
10
442.316357682585
20
221.166879343486
30
0.0
11
442.316357682585
21
233.166879343486
31
0.0
0
LINE
5
48c
100
AcDbEntity
8
0-3
6
CONTINUOUS
62
2
100
AcDbLine
10
89.316357682585
20
221.166879343486
30
0.0
11
89.316357682585
21
233.166879343486
31
0.0
0
LINE
5
48d
100
AcDbEntity
8
0-3
6
CONTINUOUS
62
2
100
AcDbLine
10
89.316357682585
20
334.727516963614
30
0.0
11
89.316357682585
21
312.727516963614
31
0.0
0
LINE
5
48e
100
AcDbEntity
8
0-3
6
CONTINUOUS
62
2
100
AcDbLine
10
442.316357682585
20
334.727516963614
30
0.0
11
442.316357682585
21
312.727516963614
31
0.0
0
LINE
5
48f
100
AcDbEntity
8
0-3
6
CONTINUOUS
62
4
100
AcDbLine
10
508.561368663191
20
334.727516963614
30
0.0
11
508.561368663191
21
312.727516963614
31
0.0
0
TEXT
5
490
100
AcDbEntity
8
0-3
62
4
100
AcDbText
10
506.890
20
320.780
30
0.0
40
5.049
41
0.518
50
90.000
1
22
72
1
11
507.451
21
324.155
31
0.0
100
AcDbText
73
1
0
POLYLINE
5
491
100
AcDbEntity
  8
0-3
6
CONTINUOUS
62
4
100
AcDb2dPolyline
66
1
10
0
20
0
70
1
40
0.600
41
0.600
0
VERTEX
5
492
100
AcDbEntity
  8
0-3
6
CONTINUOUS
62
4
100
AcDbVertex
100
AcDb2dVertex
10
508.261
20
334.728
30
0.0
42
1.000
0
VERTEX
5
493
100
AcDbEntity
  8
0-3
6
CONTINUOUS
62
4
100
AcDbVertex
100
AcDb2dVertex
10
508.861
20
334.728
30
0.0
42
1.000
0
SEQEND
5
494
100
AcDbEntity
  8
0-3
0
POLYLINE
5
495
100
AcDbEntity
  8
0-3
6
CONTINUOUS
62
4
100
AcDb2dPolyline
66
1
10
0
20
0
70
1
40
0.600
41
0.600
0
VERTEX
5
496
100
AcDbEntity
  8
0-3
6
CONTINUOUS
62
4
100
AcDbVertex
100
AcDb2dVertex
10
508.261
20
312.728
30
0.0
42
1.000
0
VERTEX
5
497
100
AcDbEntity
  8
0-3
6
CONTINUOUS
62
4
100
AcDbVertex
100
AcDb2dVertex
10
508.861
20
312.728
30
0.0
42
1.000
0
SEQEND
5
498
100
AcDbEntity
  8
0-3
0
LINE
5
499
100
AcDbEntity
8
0-3
6
CONTINUOUS
62
4
100
AcDbLine
10
508.561368663191
20
334.727516963614
30
0.0
11
476.038978859941
21
334.727516963614
31
0.0
0
LINE
5
49a
100
AcDbEntity
8
0-3
6
CONTINUOUS
62
4
100
AcDbLine
10
508.561368663191
20
312.727516963614
30
0.0
11
476.038978859941
21
312.727516963614
31
0.0
0
LINE
5
49b
100
AcDbEntity
8
0-3
6
CONTINUOUS
62
4
100
AcDbLine
10
59.816357682585
20
289.048519025495
30
0.0
11
471.816357682585
21
289.048519025495
31
0.0
0
TEXT
5
49c
100
AcDbEntity
8
0-3
62
4
100
AcDbText
10
261.181
20
290.720
30
0.0
40
5.049
41
0.654
50
0.000
1
412
72
1
11
266.244
21
290.159
31
0.0
100
AcDbText
73
1
0
POLYLINE
5
49d
100
AcDbEntity
  8
0-3
6
CONTINUOUS
62
4
100
AcDb2dPolyline
66
1
10
0
20
0
70
1
40
0.600
41
0.600
0
VERTEX
5
49e
100
AcDbEntity
  8
0-3
6
CONTINUOUS
62
4
100
AcDbVertex
100
AcDb2dVertex
10
59.516
20
289.049
30
0.0
42
1.000
0
VERTEX
5
49f
100
AcDbEntity
  8
0-3
6
CONTINUOUS
62
4
100
AcDbVertex
100
AcDb2dVertex
10
60.116
20
289.049
30
0.0
42
1.000
0
SEQEND
5
4a0
100
AcDbEntity
  8
0-3
0
POLYLINE
5
4a1
100
AcDbEntity
  8
0-3
6
CONTINUOUS
62
4
100
AcDb2dPolyline
66
1
10
0
20
0
70
1
40
0.600
41
0.600
0
VERTEX
5
4a2
100
AcDbEntity
  8
0-3
6
CONTINUOUS
62
4
100
AcDbVertex
100
AcDb2dVertex
10
471.516
20
289.049
30
0.0
42
1.000
0
VERTEX
5
4a3
100
AcDbEntity
  8
0-3
6
CONTINUOUS
62
4
100
AcDbVertex
100
AcDb2dVertex
10
472.116
20
289.049
30
0.0
42
1.000
0
SEQEND
5
4a4
100
AcDbEntity
  8
0-3
0
LINE
5
4a5
100
AcDbEntity
8
0-3
6
CONTINUOUS
62
4
100
AcDbLine
10
59.816357682585
20
289.048519025495
30
0.0
11
59.816357682585
21
309.220634219916
31
0.0
0
LINE
5
4a6
100
AcDbEntity
8
0-3
6
CONTINUOUS
62
4
100
AcDbLine
10
471.816357682585
20
289.048519025495
30
0.0
11
471.816357682585
21
309.220634219916
31
0.0
0
LINE
5
4a7
100
AcDbEntity
8
0-3
6
CONTINUOUS
62
4
100
AcDbLine
10
383.411919293721
20
241.338994537907
30
0.0
11
383.411919293721
21
253.338994537907
31
0.0
0
TEXT
5
4a8
100
AcDbEntity
8
0-3
62
4
100
AcDbText
10
381.741
20
244.391
30
0.0
40
5.049
41
0.675
50
90.000
1
12
72
1
11
382.302
21
247.766
31
0.0
100
AcDbText
73
1
0
POLYLINE
5
4a9
100
AcDbEntity
  8
0-3
6
CONTINUOUS
62
4
100
AcDb2dPolyline
66
1
10
0
20
0
70
1
40
0.600
41
0.600
0
VERTEX
5
4aa
100
AcDbEntity
  8
0-3
6
CONTINUOUS
62
4
100
AcDbVertex
100
AcDb2dVertex
10
383.112
20
241.339
30
0.0
42
1.000
0
VERTEX
5
4ab
100
AcDbEntity
  8
0-3
6
CONTINUOUS
62
4
100
AcDbVertex
100
AcDb2dVertex
10
383.712
20
241.339
30
0.0
42
1.000
0
SEQEND
5
4ac
100
AcDbEntity
  8
0-3
0
POLYLINE
5
4ad
100
AcDbEntity
  8
0-3
6
CONTINUOUS
62
4
100
AcDb2dPolyline
66
1
10
0
20
0
70
1
40
0.600
41
0.600
0
VERTEX
5
4ae
100
AcDbEntity
  8
0-3
6
CONTINUOUS
62
4
100
AcDbVertex
100
AcDb2dVertex
10
383.112
20
253.339
30
0.0
42
1.000
0
VERTEX
5
4af
100
AcDbEntity
  8
0-3
6
CONTINUOUS
62
4
100
AcDbVertex
100
AcDb2dVertex
10
383.712
20
253.339
30
0.0
42
1.000
0
SEQEND
5
4b0
100
AcDbEntity
  8
0-3
0
LINE
5
4b1
100
AcDbEntity
8
0-3
6
CONTINUOUS
62
4
100
AcDbLine
10
383.411919293721
20
241.338994537907
30
0.0
11
403.584034488142
21
221.166879343486
31
0.0
0
LINE
5
4b2
100
AcDbEntity
8
0-3
6
CONTINUOUS
62
4
100
AcDbLine
10
383.411919293721
20
253.338994537907
30
0.0
11
403.584034488142
21
233.166879343486
31
0.0
0
LINE
5
4b3
100
AcDbEntity
8
0-3
6
CONTINUOUS
62
4
100
AcDbLine
10
383.411919293721
20
332.899632158035
30
0.0
11
383.411919293721
21
354.899632158035
31
0.0
0
TEXT
5
4b4
100
AcDbEntity
8
0-3
62
4
100
AcDbText
10
381.741
20
340.952
30
0.0
40
5.049
41
0.518
50
90.000
1
22
72
1
11
382.302
21
344.327
31
0.0
100
AcDbText
73
1
0
POLYLINE
5
4b5
100
AcDbEntity
  8
0-3
6
CONTINUOUS
62
4
100
AcDb2dPolyline
66
1
10
0
20
0
70
1
40
0.600
41
0.600
0
VERTEX
5
4b6
100
AcDbEntity
  8
0-3
6
CONTINUOUS
62
4
100
AcDbVertex
100
AcDb2dVertex
10
383.112
20
332.900
30
0.0
42
1.000
0
VERTEX
5
4b7
100
AcDbEntity
  8
0-3
6
CONTINUOUS
62
4
100
AcDbVertex
100
AcDb2dVertex
10
383.712
20
332.900
30
0.0
42
1.000
0
SEQEND
5
4b8
100
AcDbEntity
  8
0-3
0
POLYLINE
5
4b9
100
AcDbEntity
  8
0-3
6
CONTINUOUS
62
4
100
AcDb2dPolyline
66
1
10
0
20
0
70
1
40
0.600
41
0.600
0
VERTEX
5
4ba
100
AcDbEntity
  8
0-3
6
CONTINUOUS
62
4
100
AcDbVertex
100
AcDb2dVertex
10
383.112
20
354.900
30
0.0
42
1.000
0
VERTEX
5
4bb
100
AcDbEntity
  8
0-3
6
CONTINUOUS
62
4
100
AcDbVertex
100
AcDb2dVertex
10
383.712
20
354.900
30
0.0
42
1.000
0
SEQEND
5
4bc
100
AcDbEntity
  8
0-3
0
LINE
5
4bd
100
AcDbEntity
8
0-3
6
CONTINUOUS
62
4
100
AcDbLine
10
383.411919293721
20
332.899632158035
30
0.0
11
403.584034488142
21
312.727516963614
31
0.0
0
LINE
5
4be
100
AcDbEntity
8
0-3
6
CONTINUOUS
62
4
100
AcDbLine
10
383.411919293721
20
354.899632158035
30
0.0
11
403.584034488142
21
334.727516963614
31
0.0
0
LINE
5
4bf
100
AcDbEntity
8
0-3
6
CONTINUOUS
62
7
100
AcDbLine
10
79.316357682585
20
233.166879343486
30
0.0
11
95.886038627414
21
249.736560288315
31
0.0
0
ARC
5
4c0
100
AcDbEntity
8
0-3
6
CONTINUOUS
62
2
100
AcDbCircle
10
62.316357682585
20
332.227516963614
30
0.0
40
2.500000000000
100
AcDbArc
50
90.000000000000
51
180.000000000000
0
LINE
5
4c1
100
AcDbEntity
8
0-3
6
CONTINUOUS
62
2
100
AcDbLine
10
59.816357682585
20
315.227516963614
30
0.0
11
59.816357682585
21
332.227516963614
31
0.0
0
ARC
5
4c2
100
AcDbEntity
8
0-3
6
CONTINUOUS
62
2
100
AcDbCircle
10
62.316357682585
20
315.227516963614
30
0.0
40
2.500000000000
100
AcDbArc
50
180.000000000000
51
270.000000000000
0
LINE
5
4c3
100
AcDbEntity
8
0-3
6
CONTINUOUS
62
2
100
AcDbLine
10
469.316357682585
20
312.727516963614
30
0.0
11
62.316357682585
21
312.727516963614
31
0.0
0
ARC
5
4c4
100
AcDbEntity
8
0-3
6
CONTINUOUS
62
2
100
AcDbCircle
10
469.316357682585
20
315.227516963614
30
0.0
40
2.500000000000
100
AcDbArc
50
270.000000000000
51
360.000000000000
0
LINE
5
4c5
100
AcDbEntity
8
0-3
6
CONTINUOUS
62
2
100
AcDbLine
10
471.816357682585
20
332.227516963614
30
0.0
11
471.816357682585
21
315.227516963614
31
0.0
0
LINE
5
4c6
100
AcDbEntity
8
0-3
6
CONTINUOUS
62
2
100
AcDbLine
10
469.316357682585
20
334.727516963614
30
0.0
11
62.316357682585
21
334.727516963614
31
0.0
0
ARC
5
4c7
100
AcDbEntity
8
0-3
6
CONTINUOUS
62
2
100
AcDbCircle
10
469.316357682585
20
332.227516963614
30
0.0
40
2.500000000000
100
AcDbArc
50
0.000000000000
51
90.000000000000
0
TEXT
5
4c8
100
AcDbEntity
8
0-3
62
7
100
AcDbText
10
97.615
20
262.768
30
0.0
40
5.049
41
0.963
50
0.000
1
材質：亜鉛ダイキャスト
72
1
11
134.740
21
262.207
31
0.0
100
AcDbText
73
1
0
TEXT
5
4c9
100
AcDbEntity
8
0-3
62
7
100
AcDbText
10
97.615
20
253.253
30
0.0
40
5.049
41
0.963
50
0.000
1
仕上：クローム仕上
72
1
11
127.990
21
252.692
31
0.0
100
AcDbText
73
1
0
LINE
5
4ca
100
AcDbEntity
8
0-3
6
CONTINUOUS
62
7
100
AcDbLine
10
95.886038627414
20
249.736560288315
30
0.0
11
170.874766744094
21
249.736560288315
31
0.0
0
LINE
5
4cb
100
AcDbEntity
8
0-3
6
CONTINUOUS
62
7
100
AcDbLine
10
420.971764769521
20
233.166879343486
30
0.0
11
437.541445714350
21
249.736560288315
31
0.0
0
TEXT
5
4cc
100
AcDbEntity
8
0-3
62
7
100
AcDbText
10
439.270
20
262.768
30
0.0
40
5.049
41
0.963
50
0.000
1
材質：ステンレス
72
1
11
466.270
21
262.207
31
0.0
100
AcDbText
73
1
0
TEXT
5
4cd
100
AcDbEntity
8
0-3
62
7
100
AcDbText
10
439.270
20
253.253
30
0.0
40
5.049
41
0.963
50
0.000
1
仕上：ヘアライン仕上
72
1
11
473.020
21
252.692
31
0.0
100
AcDbText
73
1
0
LINE
5
4ce
100
AcDbEntity
8
0-3
6
CONTINUOUS
62
7
100
AcDbLine
10
437.541445714350
20
249.736560288315
30
0.0
11
505.780173831030
21
249.736560288315
31
0.0
0
ARC
5
4cf
100
AcDbEntity
8
0-3
6
CONTINUOUS
62
2
100
AcDbCircle
10
521.444756407693
20
230.666879343486
30
0.0
40
2.500000000000
100
AcDbArc
50
90.000000000000
51
180.000000000000
0
LINE
5
4d0
100
AcDbEntity
8
0-3
6
CONTINUOUS
62
2
100
AcDbLine
10
538.444756407693
20
233.166879343486
30
0.0
11
521.444756407693
21
233.166879343486
31
0.0
0
ARC
5
4d1
100
AcDbEntity
8
0-3
6
CONTINUOUS
62
2
100
AcDbCircle
10
538.444756407693
20
230.666879343486
30
0.0
40
2.500000000000
100
AcDbArc
50
0.000000000000
51
90.000000000000
0
LINE
5
4d2
100
AcDbEntity
8
0-3
6
CONTINUOUS
62
2
100
AcDbLine
10
518.944756407693
20
230.666879343486
30
0.0
11
518.944756407693
21
196.166879343486
31
0.0
0
LINE
5
4d3
100
AcDbEntity
8
0-3
6
CONTINUOUS
62
2
100
AcDbLine
10
540.944756407693
20
230.666879343486
30
0.0
11
540.944756407693
21
196.166879343486
31
0.0
0
LINE
5
4d4
100
AcDbEntity
8
0-3
6
CONTINUOUS
62
2
100
AcDbLine
10
518.944756407693
20
196.166879343486
30
0.0
11
540.944756407693
21
196.166879343486
31
0.0
0
LINE
5
4d5
100
AcDbEntity
8
0-3
6
CONTINUOUS
62
7
100
AcDbLine
10
529.944756407693
20
178.666879343486
30
0.0
11
529.944756407693
21
213.666879343486
31
0.0
0
LINE
5
4d6
100
AcDbEntity
8
0-3
6
CONTINUOUS
62
7
100
AcDbLine
10
532.145050265888
20
195.390096683647
30
0.0
11
558.657677242694
21
168.877469706841
31
0.0
0
TEXT
5
4d7
100
AcDbEntity
8
0-3
62
7
100
AcDbText
10
560.386
20
172.394
30
0.0
40
5.049
41
0.666
50
0.000
1
M4-10
72
1
11
568.824
21
171.833
31
0.0
100
AcDbText
73
1
0
LINE
5
4d8
100
AcDbEntity
8
0-3
6
CONTINUOUS
62
7
100
AcDbLine
10
558.657677242694
20
168.877469706841
30
0.0
11
576.646405359374
21
168.877469706841
31
0.0
0
MTEXT
5
4d9
100
AcDbEntity
8
F-0
62
7
100
AcDbMText
10
611.242
20
48.020
30
0.0
40
3.576
41
0.000
71
5
72
1
1
\W1.134;{\W0.817;1}／{\W0.817;1.5}
7
STANDARD
11
1.00000
21
0.00000
31
0.0
0
MTEXT
5
4da
100
AcDbEntity
8
F-0
62
7
100
AcDbMText
10
564.742
20
36.770
30
0.0
40
3.576
41
0.000
71
5
72
1
1
\W1.134;{\W0.817;2020}年{\W0.817;6}月{\W0.817;18}日
7
STANDARD
11
1.00000
21
0.00000
31
0.0
0
TEXT
5
4db
100
AcDbEntity
8
F-0
62
7
100
AcDbText
10
511.680
20
45.816
30
0.0
40
3.787
41
0.999
50
0.000
1
ステンレスハンドル
72
1
11
535.125
21
47.750
31
0.0
100
AcDbText
73
2
0
ENDSEC
 0
SECTION
  2
OBJECTS
 0
DICTIONARY
  5
C
100
AcDbDictionary
  3
ACAD_GROUP
350
D
  3
ACAD_MLINESTYLE
350
E
 0
DICTIONARY
  5
D
100
AcDbDictionary
 0
DICTIONARY
  5
E
100
AcDbDictionary
  3
STANDARD
350
13
0
MLINESTYLE
  5
13
100
AcDbMlineStyle
  2
STANDARD
 70
    0
3

62
256
51
90.0
52
90.0
71
0
0
ENDSEC
0
EOF
