0
SECTION
2
HEADER
9
$ACADVER
1
AC1012
9
$DWGCODEPAGE
3
ANSI_932
9
$EXTMIN
10
0.000
20
0.000
30
0.0
9
$EXTMAX
10
2100.000
20
1485.000
30
0.0
9
$LIMMIN
10
0.000
20
0.000
9
$LIMMAX
10
2100.000
20
1485.000
9
$DIMSCALE
40
5.000000
9
$LTSCALE
40
5.000
9
$PDMODE
70
0
9
$PDSIZE
40
40.0
9
$HANDSEED
5
61b1c
9
$UNITMODE
70
0
9
$VISRETAIN
70
0
9
$PLINEGEN
70
0
9
$PSLTSCALE
70
1
9
$TREEDEPTH
70
3020
9
$CMLSTYLE
2
STANDARD
9
$CMLJUST
70
0
9
$CMLSCALE
40
1.0
0
ENDSEC
0
SECTION
2
TABLES
0
TABLE
2
VPORT
5
190
100
AcDbSymbolTable
70
2
0
VPORT
5
191
100
AcDbSymbolTableRecord
100
AcDbViewportTableRecord
2
*ACTIVE
70
0
10
0.0
20
0.0
11
1.0
21
1.0
12
1050.000
22
742.500
13
0.0
23
0.0
14
1.0
24
1.0
15
0.0
25
0.0
16
0.0
26
0.0
36
1.0
17
0.0
27
0.0
37
0.0
40
1521.739
41
2.0
42
50.0
43
0.0
44
0.0
50
0.0
51
0.0
71
0
72
1000
73
1
74
1
75
0
76
0
77
0
78
0
0
ENDTAB
0
TABLE
2
LTYPE
5
1f4
100
AcDbSymbolTable
70
9
0
LTYPE
5
1f5
100
AcDbSymbolTableRecord
100
AcDbLinetypeTableRecord
2
BYBLOCK
70
 64
3

72
 65
73
  0
40
0.0
0
LTYPE
5
1f6
100
AcDbSymbolTableRecord
100
AcDbLinetypeTableRecord
2
BYLAYER
70
 64
3

72
 65
73
  0
40
0.0
0
LTYPE
5
1f7
100
AcDbSymbolTableRecord
100
AcDbLinetypeTableRecord
2
CONTINUOUS
70
64
3
SolidLine
72
65
73
0
40
0.0
0
LTYPE
5
1f8
100
AcDbSymbolTableRecord
100
AcDbLinetypeTableRecord
2
DOT
70
64
3
--  --  --  --  --  --  --  --     
72
65
73
2
40
3.000
49
1.000
74
0
49
-2.000
74
0
0
LTYPE
5
1f9
100
AcDbSymbolTableRecord
100
AcDbLinetypeTableRecord
2
DASHED
70
64
3
----    ----    ----    ----    
72
65
73
2
40
5.000
49
2.000
74
0
49
-3.000
74
0
0
LTYPE
5
1fa
100
AcDbSymbolTableRecord
100
AcDbLinetypeTableRecord
2
DASHED2
70
64
3
------  ------  ------  ------ 
72
65
73
2
40
10.000
49
4.000
74
0
49
-6.000
74
0
0
LTYPE
5
1fb
100
AcDbSymbolTableRecord
100
AcDbLinetypeTableRecord
2
CENTER
70
64
3
----- - ----- - ----- - ----- - 
72
65
73
4
40
10.000
49
6.000
74
0
49
-3.000
74
0
49
1.000
74
0
49
-3.000
74
0
0
LTYPE
5
1fc
100
AcDbSymbolTableRecord
100
AcDbLinetypeTableRecord
2
CENTER2
70
64
3
----------  --  ----------  -- 
72
65
73
4
40
17.000
49
12.000
74
0
49
-5.000
74
0
49
2.000
74
0
49
-5.000
74
0
0
LTYPE
5
1fd
100
AcDbSymbolTableRecord
100
AcDbLinetypeTableRecord
2
PHANTOM
70
64
3
--- - - --- - - --- - - --- - -
72
65
73
6
40
13.000
49
5.000
74
0
49
-3.000
74
0
49
1.000
74
0
49
-3.000
74
0
49
1.000
74
0
49
-3.000
74
0
0
LTYPE
5
1fe
100
AcDbSymbolTableRecord
100
AcDbLinetypeTableRecord
2
PHANTOM2
70
64
3
--------  -  -  --------  -  -
72
65
73
6
40
20.000
49
6.000
74
0
49
-5.000
74
0
49
2.000
74
0
49
-5.000
74
0
49
2.000
74
0
49
-5.000
74
0
0
LTYPE
5
1ff
100
AcDbSymbolTableRecord
100
AcDbLinetypeTableRecord
2
HIDDEN
70
64
3
-   -   -   -   -   -   -   -   
72
65
73
2
40
3.000
49
0.500
74
0
49
-2.500
74
0
0
ENDTAB
0
TABLE
2
STYLE
5
200
100
AcDbSymbolTable
70
1
0
STYLE
5
201
100
AcDbSymbolTableRecord
100
AcDbTextStyleTableRecord
2
STANDARD
70
0
40
0.0
41
1.0
50
0.0
71
0
42
0.0
3
txt.shx
4
extfont.shx
0
STYLE
5
202
100
AcDbSymbolTableRecord
100
AcDbTextStyleTableRecord
2
TATEGAKI
70
4
40
0.0
41
1.0
50
0.0
71
0
42
0.0
3
txt.shx
4
extfont.shx
0
STYLE
5
203
100
AcDbSymbolTableRecord
100
AcDbTextStyleTableRecord
2
 
70
0
40
0.0
41
0.75
50
0.0
71
0
42
0.0
3
txt.shx
4
extfont.shx
0
STYLE
5
204
100
AcDbSymbolTableRecord
100
AcDbTextStyleTableRecord
2
_Gothic_
70
0
40
1.0
41
1.0
50
0.0
71
0
42
10.0
3

4

1001
ACAD
1000
MS Gothic
1071
32817
0
STYLE
5
205
100
AcDbSymbolTableRecord
100
AcDbTextStyleTableRecord
2
_TateGothic_
70
4
40
0.0
41
1.0
50
0.0
71
0
42
0.0
3
@MS Gothic
4

0
ENDTAB
0
TABLE
2
VIEW
5
206
100
AcDbSymbolTable
70
0
0
ENDTAB
0
TABLE
2
UCS
5
207
100
AcDbSymbolTable
70
0
0
ENDTAB
0
TABLE
2
APPID
5
208
100
AcDbSymbolTable
70
1
0
APPID
5
209
100
AcDbSymbolTableRecord
100
AcDbRegAppTableRecord
2
ACAD
70
0
0
ENDTAB
0
TABLE
2
DIMSTYLE
5
403
100
AcDbSymbolTable
70
1
0
DIMSTYLE
105
404
100
AcDbSymbolTableRecord
100
AcDbDimStyleTableRecord
2
JAC_DIM
3

4

5

6

7

70
0
40
5.0
41
10.000
42
0.000
43
0.0
44
0.0
45
0.0
46
0.0
47
0.0
48
0.0
73
0
74
0
77
1
78
8
140
0.000
170
0
171
2
172
0
173
0
174
0
175
0
176
0
177
0
178
0
270
2
271
0
272
0
273
2
274
2
340
201
275
0
280
0
281
0
282
0
283
0
284
0
285
0
286
0
287
3
288
0
0
ENDTAB
0
TABLE
2
BLOCK_RECORD
5
405
100
AcDbSymbolTable
70
0
0
BLOCK_RECORD
5
406
100
AcDbSymbolTableRecord
100
AcDbBlockTableRecord
2
*MODEL_SPACE
0
BLOCK_RECORD
5
407
100
AcDbSymbolTableRecord
100
AcDbBlockTableRecord
2
*PAPER_SPACE
0
BLOCK_RECORD
5
408
100
AcDbSymbolTableRecord
100
AcDbBlockTableRecord
2
_JACCONVERT_
0
ENDTAB
0
TABLE
2
LAYER
5
409
100
AcDbSymbolTable
70
10
0
LAYER
5
40a
100
AcDbSymbolTableRecord
100
AcDbLayerTableRecord
2
0
70
0
62
7
6
CONTINUOUS
0
LAYER
5
40b
100
AcDbSymbolTableRecord
100
AcDbLayerTableRecord
2
0-3
70
0
62
7
6
CONTINUOUS
0
LAYER
5
40c
100
AcDbSymbolTableRecord
100
AcDbLayerTableRecord
2
F-0
70
0
62
7
6
CONTINUOUS
0
LAYER
5
40d
100
AcDbSymbolTableRecord
100
AcDbLayerTableRecord
2
F-F_J_ADD
70
0
62
-7
6
CONTINUOUS
0
ENDTAB
0
ENDSEC
0
SECTION
2
BLOCKS
0
BLOCK
5
40e
100
AcDbEntity
67
1
8
0
100
AcDbBlockBegin
2
*MODEL_SPACE
70
0
10
0.0
20
0.0
30
0.0
3
*MODEL_SPACE
1

0
ENDBLK
5
40f
100
AcDbEntity
8
0
100
AcDbBlockEnd
0
BLOCK
5
410
100
AcDbEntity
67
1
8
0
100
AcDbBlockBegin
2
*PAPER_SPACE
70
0
10
0.0
20
0.0
30
0.0
3
*PAPER_SPACE
1

0
ENDBLK
5
411
100
AcDbEntity
67
1
8
0
100
AcDbBlockEnd
0
BLOCK
5
412
100
AcDbEntity
8
0
100
AcDbBlockBegin
2
_JACCONVERT_
70
2
10
0.0
20
0.0
30
0.0
3
_JACCONVERT_
1
_JACCONVERT_
0
ATTDEF
5
413
100
AcDbEntity
8
0
62
0
100
AcDbText
10
0.0
20
0.0
30
0.0
40
1.0
1
User:33307E081580834E08362083700830930835B08108A0834F0837B0960FA093
100
AcDbAttributeDefinition
3

2
USER
70
8
0
ATTDEF
5
414
100
AcDbEntity
8
0
62
0
100
AcDbText
10
0.0
20
2.0
30
0.0
40
1.0
1
Date:20/08/03 14:37
100
AcDbAttributeDefinition
3

2
REVDATE
70
8
0
ATTDEF
5
415
100
AcDbEntity
8
0
62
0
100
AcDbText
10
0.0
20
4.0
30
0.0
40
1.0
1
File:W60_baseboard_stainless.dxf
100
AcDbAttributeDefinition
3

2
FNAME
70
8
0
ATTDEF
5
416
100
AcDbEntity
8
0
62
0
100
AcDbText
10
0.0
20
6.0
30
0.0
40
1.0
1
JacConvert Version3.11 copyright (c) 2001-2016 K.Nakahara
100
AcDbAttributeDefinition
3

2
VER
70
8
0
ENDBLK
5
417
100
AcDbEntity
67
1
8
0
100
AcDbBlockEnd
0
ENDSEC
0
SECTION
2
ENTITIES
0
LINE
5
418
100
AcDbEntity
8
F-0
6
CONTINUOUS
62
2
100
AcDbLine
10
83.927754581963
20
1396.579211986677
30
0.0
11
83.927754581963
21
1356.579211986677
31
0.0
0
LINE
5
419
100
AcDbEntity
8
F-0
6
CONTINUOUS
62
2
100
AcDbLine
10
2065.000000000000
20
51.666680413323
30
0.0
11
2065.000000000000
21
1433.333319586677
31
0.0
0
POLYLINE
5
41a
100
AcDbEntity
8
F-0
6
CONTINUOUS
62
  2
100
AcDb2dPolyline
66
1
10
0.0
20
0.0
30
0.0
70
0
0
VERTEX
5
41b
100
AcDbEntity
8
F-0
6
CONTINUOUS
62
  2
100
AcDbVertex
100
AcDb2dVertex
10
35.000000000000
20
51.666680413323
30
0.0
0
VERTEX
5
41c
100
AcDbEntity
8
F-0
6
CONTINUOUS
62
  2
100
AcDbVertex
100
AcDb2dVertex
10
35.000000000000
20
1433.333319586677
30
0.0
0
VERTEX
5
41d
100
AcDbEntity
8
F-0
6
CONTINUOUS
62
  2
100
AcDbVertex
100
AcDb2dVertex
10
2065.000000000000
20
1433.333319586677
30
0.0
0
SEQEND
5
41e
100
AcDbEntity
8
F-0
0
LINE
5
41f
100
AcDbEntity
8
F-0
6
CONTINUOUS
62
2
100
AcDbLine
10
1050.000000000000
20
1433.333319586677
30
0.0
11
1050.000000000000
21
1508.333319586677
31
0.0
0
LINE
5
420
100
AcDbEntity
8
F-0
6
CONTINUOUS
62
2
100
AcDbLine
10
2140.000000000000
20
742.500000000000
30
0.0
11
2065.000000000000
21
742.500000000000
31
0.0
0
LINE
5
421
100
AcDbEntity
8
F-0
6
CONTINUOUS
62
2
100
AcDbLine
10
35.000000000000
20
51.666680413323
30
0.0
11
2065.000000000000
21
51.666680413323
31
0.0
0
LINE
5
422
100
AcDbEntity
8
F-0
6
CONTINUOUS
62
2
100
AcDbLine
10
1050.000000000000
20
51.666680413323
30
0.0
11
1050.000000000000
21
-23.333319586677
31
0.0
0
LINE
5
423
100
AcDbEntity
8
F-0
6
CONTINUOUS
62
2
100
AcDbLine
10
-40.000000000000
20
742.500000000000
30
0.0
11
35.000000000000
21
742.500000000000
31
0.0
0
LINE
5
424
100
AcDbEntity
8
F-0
6
CONTINUOUS
62
7
100
AcDbLine
10
1557.500000000000
20
76.666680413323
30
0.0
11
1753.750000000000
21
76.666680413323
31
0.0
0
TEXT
5
425
100
AcDbEntity
8
F-0
62
7
100
AcDbText
10
1705.392
20
58.969
30
0.0
40
12.623
41
0.999
50
0.000
1
製図
72
1
11
1722.292
21
65.417
31
0.0
100
AcDbText
73
2
0
TEXT
5
426
100
AcDbEntity
8
F-0
62
7
100
AcDbText
10
1574.558
20
58.969
30
0.0
40
12.623
41
0.999
50
0.000
1
承認
72
1
11
1591.458
21
65.417
31
0.0
100
AcDbText
73
2
0
TEXT
5
427
100
AcDbEntity
8
F-0
62
7
100
AcDbText
10
1639.975
20
58.969
30
0.0
40
12.623
41
0.999
50
0.000
1
照査
72
1
11
1656.875
21
65.417
31
0.0
100
AcDbText
73
2
0
LINE
5
428
100
AcDbEntity
8
F-0
6
CONTINUOUS
62
2
100
AcDbLine
10
1753.750000000000
20
101.666680413323
30
0.0
11
2065.000000000000
21
101.666680413323
31
0.0
0
LINE
5
429
100
AcDbEntity
8
F-0
6
CONTINUOUS
62
2
100
AcDbLine
10
1557.500000000000
20
139.166680413323
30
0.0
11
2065.000000000000
21
139.166680413323
31
0.0
0
LINE
5
42a
100
AcDbEntity
8
F-0
6
CONTINUOUS
62
2
100
AcDbLine
10
1753.750000000000
20
139.166680413323
30
0.0
11
1753.750000000000
21
51.666680413323
31
0.0
0
LINE
5
42b
100
AcDbEntity
8
F-0
6
CONTINUOUS
62
7
100
AcDbLine
10
1688.333333333333
20
139.166680413323
30
0.0
11
1688.333333333333
21
51.666680413323
31
0.0
0
LINE
5
42c
100
AcDbEntity
8
F-0
6
CONTINUOUS
62
7
100
AcDbLine
10
1622.916666666667
20
214.166680413323
30
0.0
11
1622.916666666667
21
51.666680413323
31
0.0
0
TEXT
5
42d
100
AcDbEntity
8
F-0
62
7
100
AcDbText
10
1565.808
20
190.219
30
0.0
40
12.623
41
0.999
50
0.000
1
製品名
72
1
11
1591.458
21
196.667
31
0.0
100
AcDbText
73
2
0
POLYLINE
5
42e
100
AcDbEntity
8
F-0
6
CONTINUOUS
62
  2
100
AcDb2dPolyline
66
1
10
0.0
20
0.0
30
0.0
70
0
0
VERTEX
5
42f
100
AcDbEntity
8
F-0
6
CONTINUOUS
62
  2
100
AcDbVertex
100
AcDb2dVertex
10
1557.500000000000
20
51.666680413323
30
0.0
0
VERTEX
5
430
100
AcDbEntity
8
F-0
6
CONTINUOUS
62
  2
100
AcDbVertex
100
AcDb2dVertex
10
1557.500000000000
20
214.166680413323
30
0.0
0
VERTEX
5
431
100
AcDbEntity
8
F-0
6
CONTINUOUS
62
  2
100
AcDbVertex
100
AcDb2dVertex
10
2065.000000000000
20
214.166680413323
30
0.0
0
SEQEND
5
432
100
AcDbEntity
8
F-0
0
LINE
5
433
100
AcDbEntity
8
F-0
6
CONTINUOUS
62
7
100
AcDbLine
10
1819.166666666667
20
139.166680413323
30
0.0
11
1819.166666666667
21
101.666680413323
31
0.0
0
TEXT
5
434
100
AcDbEntity
8
F-0
62
7
100
AcDbText
10
1762.058
20
115.219
30
0.0
40
12.623
41
0.999
50
0.000
1
作図日
72
1
11
1787.708
21
121.667
31
0.0
100
AcDbText
73
2
0
LINE
5
435
100
AcDbEntity
8
F-0
6
CENTER
62
7
100
AcDbLine
10
2055.263485423809
20
120.416680413323
30
0.0
11
2017.236514559525
21
120.416680413323
31
0.0
0
LINE
5
436
100
AcDbEntity
8
F-0
6
CENTER
62
7
100
AcDbLine
10
2026.228113581621
20
129.533162755171
30
0.0
11
2026.228113581621
21
111.300198071657
31
0.0
0
CIRCLE
5
437
100
AcDbEntity
8
F-0
6
CONTINUOUS
62
7
100
AcDbCircle
10
2026.228113581621
20
120.416680413323
30
0.0
40
3.246966313535
0
CIRCLE
5
438
100
AcDbEntity
8
F-0
6
CONTINUOUS
62
7
100
AcDbCircle
10
2026.228113581621
20
120.416680413323
30
0.0
40
6.877114986206
0
TEXT
5
439
100
AcDbEntity
8
F-0
62
7
100
AcDbText
10
1950.392
20
152.719
30
0.0
40
12.623
41
0.999
50
0.000
1
縮　尺
72
1
11
1976.042
21
159.167
31
0.0
100
AcDbText
73
2
0
LINE
5
43a
100
AcDbEntity
8
F-0
6
CONTINUOUS
62
7
100
AcDbLine
10
2037.891467447385
20
123.663646726858
30
0.0
11
2052.877465814051
21
127.293795399529
31
0.0
0
POLYLINE
5
43b
100
AcDbEntity
8
F-0
6
CONTINUOUS
62
  7
100
AcDb2dPolyline
66
1
10
0.0
20
0.0
30
0.0
70
0
0
VERTEX
5
43c
100
AcDbEntity
8
F-0
6
CONTINUOUS
62
  7
100
AcDbVertex
100
AcDb2dVertex
10
2037.891467447385
20
123.663646726858
30
0.0
0
VERTEX
5
43d
100
AcDbEntity
8
F-0
6
CONTINUOUS
62
  7
100
AcDbVertex
100
AcDb2dVertex
10
2037.891467447385
20
117.169714099788
30
0.0
0
VERTEX
5
43e
100
AcDbEntity
8
F-0
6
CONTINUOUS
62
  7
100
AcDbVertex
100
AcDb2dVertex
10
2052.877465814051
20
113.539565427118
30
0.0
0
SEQEND
5
43f
100
AcDbEntity
8
F-0
0
LINE
5
440
100
AcDbEntity
8
F-0
6
CONTINUOUS
62
7
100
AcDbLine
10
2052.877465814051
20
127.293795399529
30
0.0
11
2052.877465814051
21
113.539565427118
31
0.0
0
TEXT
5
441
100
AcDbEntity
8
F-0
62
7
100
AcDbText
10
1950.392
20
115.219
30
0.0
40
12.623
41
0.999
50
0.000
1
投影法
72
1
11
1976.042
21
121.667
31
0.0
100
AcDbText
73
2
0
LINE
5
442
100
AcDbEntity
8
F-0
6
CONTINUOUS
62
2
100
AcDbLine
10
1942.083333316667
20
176.666680413323
30
0.0
11
1942.083333316667
21
101.666680413323
31
0.0
0
LINE
5
443
100
AcDbEntity
8
F-0
6
CONTINUOUS
62
7
100
AcDbLine
10
2007.499999983334
20
176.666680413323
30
0.0
11
2007.499999983334
21
101.666680413323
31
0.0
0
LINE
5
444
100
AcDbEntity
8
F-0
6
CONTINUOUS
62
7
100
AcDbLine
10
1557.500000000000
20
176.666680413323
30
0.0
11
1942.083333316667
21
176.666680413323
31
0.0
0
LINE
5
445
100
AcDbEntity
8
F-0
6
CONTINUOUS
62
2
100
AcDbLine
10
1942.083333316667
20
176.666680413323
30
0.0
11
2065.000000000000
21
176.666680413323
31
0.0
0
TEXT
5
446
100
AcDbEntity
8
F-0
62
7
100
AcDbText
10
1565.808
20
152.719
30
0.0
40
12.623
1
品　番
41
0.999
50
0.000
100
AcDbText
0
POLYLINE
5
447
100
AcDbEntity
8
F-0
6
CONTINUOUS
62
  2
100
AcDb2dPolyline
66
1
10
0.0
20
0.0
30
0.0
70
0
0
VERTEX
5
448
100
AcDbEntity
8
F-0
6
CONTINUOUS
62
  2
100
AcDbVertex
100
AcDb2dVertex
10
83.927754581963
20
1396.579211986677
30
0.0
0
VERTEX
5
449
100
AcDbEntity
8
F-0
6
CONTINUOUS
62
  2
100
AcDbVertex
100
AcDb2dVertex
10
525.683035103208
20
1396.579211986677
30
0.0
0
VERTEX
5
44a
100
AcDbEntity
8
F-0
6
CONTINUOUS
62
  2
100
AcDbVertex
100
AcDb2dVertex
10
525.683035103208
20
1356.579211986677
30
0.0
0
SEQEND
5
44b
100
AcDbEntity
8
F-0
0
LINE
5
44c
100
AcDbEntity
8
F-0
6
CONTINUOUS
62
2
100
AcDbLine
10
83.927754581963
20
1356.579211986677
30
0.0
11
525.683035103208
21
1356.579211986677
31
0.0
0
MTEXT
5
44d
100
AcDbEntity
8
F-0
62
3
100
AcDbMText
10
308.505
20
1380.879
30
0.0
40
23.843
41
0.000
71
5
72
1
1
\W1.134;幅{\W0.817;60cm}モデル・巾木図面
7
STANDARD
11
1.00000
21
0.00000
31
0.0
0
MTEXT
5
44e
100
AcDbEntity
8
F-0
62
7
100
AcDbMText
10
1845.183
20
197.567
30
0.0
40
11.921
41
0.000
71
5
72
1
1
\W1.134;ボッシュ　ビルトイン食器洗い機　幅６０{\W0.817;cm}
7
STANDARD
11
1.00000
21
0.00000
31
0.0
0
MTEXT
5
44f
100
AcDbEntity
8
F-0
62
7
100
AcDbMText
10
1910.075
20
77.717
30
0.0
40
13.908
41
0.000
71
5
72
1
1
\W0.972;株式会社　{\W0.700;G-Place}
7
STANDARD
11
1.00000
21
0.00000
31
0.0
0
LINE
5
450
100
AcDbEntity
8
F-0
6
CONTINUOUS
62
7
100
AcDbLine
10
145.548944783376
20
191.206499176057
30
0.0
11
112.117139978067
21
191.206499176057
31
0.0
0
LINE
5
451
100
AcDbEntity
8
F-0
6
CONTINUOUS
62
7
100
AcDbLine
10
128.833042380722
20
220.159291431818
30
0.0
11
112.117139978067
21
191.206499176057
31
0.0
0
LINE
5
452
100
AcDbEntity
8
F-0
6
CONTINUOUS
62
7
100
AcDbLine
10
128.833042380722
20
220.159291431818
30
0.0
11
145.548944783376
21
191.206499176057
31
0.0
0
LINE
5
453
100
AcDbEntity
8
F-0
6
CONTINUOUS
62
7
100
AcDbLine
10
145.548944783376
20
145.624142645092
30
0.0
11
112.117139978067
21
145.624142645092
31
0.0
0
LINE
5
454
100
AcDbEntity
8
F-0
6
CONTINUOUS
62
7
100
AcDbLine
10
128.833042380722
20
174.576934900853
30
0.0
11
112.117139978067
21
145.624142645092
31
0.0
0
LINE
5
455
100
AcDbEntity
8
F-0
6
CONTINUOUS
62
7
100
AcDbLine
10
128.833042380722
20
174.576934900853
30
0.0
11
145.548944783376
21
145.624142645092
31
0.0
0
LINE
5
456
100
AcDbEntity
8
F-0
6
CONTINUOUS
62
7
100
AcDbLine
10
145.548944783376
20
100.041786114128
30
0.0
11
112.117139978067
21
100.041786114128
31
0.0
0
LINE
5
457
100
AcDbEntity
8
F-0
6
CONTINUOUS
62
7
100
AcDbLine
10
128.833042380722
20
128.994578369889
30
0.0
11
112.117139978067
21
100.041786114128
31
0.0
0
LINE
5
458
100
AcDbEntity
8
F-0
6
CONTINUOUS
62
7
100
AcDbLine
10
128.833042380722
20
128.994578369889
30
0.0
11
145.548944783376
21
100.041786114128
31
0.0
0
TEXT
5
459
100
AcDbEntity
8
F-0
62
7
100
AcDbText
10
125.683
20
1280.037
30
0.0
40
12.623
41
0.999
50
0.000
1
【仕様】
72
0
11
125.083
21
1286.484
31
0.0
100
AcDbText
73
2
0
MTEXT
5
45a
100
AcDbEntity
8
F-0
62
7
100
AcDbMText
10
125.683
20
1261.697
30
0.0
40
11.921
41
0.000
71
4
72
1
1
\W1.134;ＭＤＦ芯地　{\W0.817;442}Ｍ{\W0.817;3 t0.3 }ＨＬ仕上げ貼り／裏面白化粧
7
STANDARD
11
1.00000
21
0.00000
31
0.0
0
TEXT
5
45b
100
AcDbEntity
8
F-0
62
7
100
AcDbText
10
125.683
20
1228.662
30
0.0
40
12.623
41
0.999
50
0.000
1
四方ローカン貼り（ＳＴ４）
72
0
11
125.083
21
1235.110
31
0.0
100
AcDbText
73
2
0
MTEXT
5
45c
100
AcDbEntity
8
F-0
62
7
100
AcDbMText
10
2019.975
20
160.067
30
0.0
40
11.921
41
0.000
71
4
72
1
1
\W1.134;{\W0.817;1}�
7
STANDARD
11
1.00000
21
0.00000
31
0.0
0
POLYLINE
5
45d
100
AcDbEntity
8
0-3
6
CONTINUOUS
62
  2
100
AcDb2dPolyline
66
1
10
0.0
20
0.0
30
0.0
70
0
0
VERTEX
5
45e
100
AcDbEntity
8
0-3
6
CONTINUOUS
62
  2
100
AcDbVertex
100
AcDb2dVertex
10
891.422884668453
20
680.517408188389
30
0.0
0
VERTEX
5
45f
100
AcDbEntity
8
0-3
6
CONTINUOUS
62
  2
100
AcDbVertex
100
AcDb2dVertex
10
297.422884668453
20
680.517408188389
30
0.0
0
VERTEX
5
460
100
AcDbEntity
8
0-3
6
CONTINUOUS
62
  2
100
AcDbVertex
100
AcDb2dVertex
10
297.422884668453
20
605.517408188389
30
0.0
0
SEQEND
5
461
100
AcDbEntity
8
0-3
0
LINE
5
462
100
AcDbEntity
8
0-3
6
CONTINUOUS
62
2
100
AcDbLine
10
891.422884668453
20
605.517408188389
30
0.0
11
891.422884668453
21
680.517408188389
31
0.0
0
LINE
5
463
100
AcDbEntity
8
0-3
6
CONTINUOUS
62
2
100
AcDbLine
10
297.422884668453
20
605.517408188389
30
0.0
11
891.422884668453
21
605.517408188389
31
0.0
0
LINE
5
464
100
AcDbEntity
8
0-3
6
CONTINUOUS
62
2
100
AcDbLine
10
1056.436170905774
20
605.517408188389
30
0.0
11
1056.436170905774
21
680.517408188389
31
0.0
0
LINE
5
465
100
AcDbEntity
8
0-3
6
CONTINUOUS
62
2
100
AcDbLine
10
1037.936170905774
20
680.517408188389
30
0.0
11
1037.936170905774
21
605.517408188389
31
0.0
0
LINE
5
466
100
AcDbEntity
8
0-3
6
CONTINUOUS
62
2
100
AcDbLine
10
1056.436170905774
20
680.517408188389
30
0.0
11
1037.936170905774
21
680.517408188389
31
0.0
0
LINE
5
467
100
AcDbEntity
8
0-3
6
CONTINUOUS
62
2
100
AcDbLine
10
1037.936170905774
20
605.517408188389
30
0.0
11
1056.436170905774
21
605.517408188389
31
0.0
0
LINE
5
468
100
AcDbEntity
8
0-3
6
CONTINUOUS
62
4
100
AcDbLine
10
297.422884668453
20
726.951856884868
30
0.0
11
891.422884668453
21
726.951856884868
31
0.0
0
TEXT
5
469
100
AcDbEntity
8
0-3
62
4
100
AcDbText
10
578.973
20
732.522
30
0.0
40
16.830
41
0.597
50
0.000
1
594
72
1
11
595.848
21
730.652
31
0.0
100
AcDbText
73
1
0
POLYLINE
5
46a
100
AcDbEntity
  8
0-3
6
CONTINUOUS
62
4
100
AcDb2dPolyline
66
1
10
0
20
0
70
1
40
2.000
41
2.000
0
VERTEX
5
46b
100
AcDbEntity
  8
0-3
6
CONTINUOUS
62
4
100
AcDbVertex
100
AcDb2dVertex
10
296.423
20
726.952
30
0.0
42
1.000
0
VERTEX
5
46c
100
AcDbEntity
  8
0-3
6
CONTINUOUS
62
4
100
AcDbVertex
100
AcDb2dVertex
10
298.423
20
726.952
30
0.0
42
1.000
0
SEQEND
5
46d
100
AcDbEntity
  8
0-3
0
POLYLINE
5
46e
100
AcDbEntity
  8
0-3
6
CONTINUOUS
62
4
100
AcDb2dPolyline
66
1
10
0
20
0
70
1
40
2.000
41
2.000
0
VERTEX
5
46f
100
AcDbEntity
  8
0-3
6
CONTINUOUS
62
4
100
AcDbVertex
100
AcDb2dVertex
10
890.423
20
726.952
30
0.0
42
1.000
0
VERTEX
5
470
100
AcDbEntity
  8
0-3
6
CONTINUOUS
62
4
100
AcDbVertex
100
AcDb2dVertex
10
892.423
20
726.952
30
0.0
42
1.000
0
SEQEND
5
471
100
AcDbEntity
  8
0-3
0
LINE
5
472
100
AcDbEntity
8
0-3
6
CONTINUOUS
62
4
100
AcDbLine
10
297.422884668453
20
726.951856884868
30
0.0
11
297.422884668453
21
680.517408188389
31
0.0
0
LINE
5
473
100
AcDbEntity
8
0-3
6
CONTINUOUS
62
4
100
AcDbLine
10
891.422884668453
20
726.951856884868
30
0.0
11
891.422884668453
21
680.517408188389
31
0.0
0
POLYLINE
5
474
100
AcDbEntity
  8
0-3
6
CONTINUOUS
62
4
100
AcDb2dPolyline
66
1
10
0
20
0
70
1
40
2.000
41
2.000
0
VERTEX
5
475
100
AcDbEntity
  8
0-3
6
CONTINUOUS
62
4
100
AcDbVertex
100
AcDb2dVertex
10
1036.936
20
726.952
30
0.0
42
1.000
0
VERTEX
5
476
100
AcDbEntity
  8
0-3
6
CONTINUOUS
62
4
100
AcDbVertex
100
AcDb2dVertex
10
1038.936
20
726.952
30
0.0
42
1.000
0
SEQEND
5
477
100
AcDbEntity
  8
0-3
0
LINE
5
478
100
AcDbEntity
8
0-3
6
CONTINUOUS
62
4
100
AcDbLine
10
1037.936170905774
20
726.951856884868
30
0.0
11
1037.936170905774
21
680.517408188389
31
0.0
0
LINE
5
479
100
AcDbEntity
8
0-3
6
CONTINUOUS
62
4
100
AcDbLine
10
1037.936170905774
20
726.951856884868
30
0.0
11
1056.436170905774
21
726.951856884868
31
0.0
0
TEXT
5
47a
100
AcDbEntity
8
0-3
62
4
100
AcDbText
10
1026.111
20
732.522
30
0.0
40
16.830
41
0.768
50
0.000
1
18.5
72
1
11
1048.611
21
730.652
31
0.0
100
AcDbText
73
1
0
POLYLINE
5
47b
100
AcDbEntity
  8
0-3
6
CONTINUOUS
62
4
100
AcDb2dPolyline
66
1
10
0
20
0
70
1
40
2.000
41
2.000
0
VERTEX
5
47c
100
AcDbEntity
  8
0-3
6
CONTINUOUS
62
4
100
AcDbVertex
100
AcDb2dVertex
10
1055.436
20
726.952
30
0.0
42
1.000
0
VERTEX
5
47d
100
AcDbEntity
  8
0-3
6
CONTINUOUS
62
4
100
AcDbVertex
100
AcDb2dVertex
10
1057.436
20
726.952
30
0.0
42
1.000
0
SEQEND
5
47e
100
AcDbEntity
  8
0-3
0
LINE
5
47f
100
AcDbEntity
8
0-3
6
CONTINUOUS
62
4
100
AcDbLine
10
1056.436170905774
20
726.951856884868
30
0.0
11
1056.436170905774
21
680.517408188389
31
0.0
0
LINE
5
480
100
AcDbEntity
8
0-3
6
CONTINUOUS
62
4
100
AcDbLine
10
246.617107526131
20
680.517408188389
30
0.0
11
246.617107526131
21
605.517408188389
31
0.0
0
TEXT
5
481
100
AcDbEntity
8
0-3
62
4
100
AcDbText
10
241.047
20
633.192
30
0.0
40
16.830
41
0.586
50
90.000
1
75
72
1
11
242.917
21
644.442
31
0.0
100
AcDbText
73
1
0
POLYLINE
5
482
100
AcDbEntity
  8
0-3
6
CONTINUOUS
62
4
100
AcDb2dPolyline
66
1
10
0
20
0
70
1
40
2.000
41
2.000
0
VERTEX
5
483
100
AcDbEntity
  8
0-3
6
CONTINUOUS
62
4
100
AcDbVertex
100
AcDb2dVertex
10
245.617
20
680.517
30
0.0
42
1.000
0
VERTEX
5
484
100
AcDbEntity
  8
0-3
6
CONTINUOUS
62
4
100
AcDbVertex
100
AcDb2dVertex
10
247.617
20
680.517
30
0.0
42
1.000
0
SEQEND
5
485
100
AcDbEntity
  8
0-3
0
POLYLINE
5
486
100
AcDbEntity
  8
0-3
6
CONTINUOUS
62
4
100
AcDb2dPolyline
66
1
10
0
20
0
70
1
40
2.000
41
2.000
0
VERTEX
5
487
100
AcDbEntity
  8
0-3
6
CONTINUOUS
62
4
100
AcDbVertex
100
AcDb2dVertex
10
245.617
20
605.517
30
0.0
42
1.000
0
VERTEX
5
488
100
AcDbEntity
  8
0-3
6
CONTINUOUS
62
4
100
AcDbVertex
100
AcDb2dVertex
10
247.617
20
605.517
30
0.0
42
1.000
0
SEQEND
5
489
100
AcDbEntity
  8
0-3
0
LINE
5
48a
100
AcDbEntity
8
0-3
6
CONTINUOUS
62
4
100
AcDbLine
10
246.617107526131
20
680.517408188389
30
0.0
11
297.422884668453
21
680.517408188389
31
0.0
0
LINE
5
48b
100
AcDbEntity
8
0-3
6
CONTINUOUS
62
4
100
AcDbLine
10
246.617107526131
20
605.517408188389
30
0.0
11
297.422884668453
21
605.517408188389
31
0.0
0
LINE
5
48c
100
AcDbEntity
8
0-3
6
CONTINUOUS
62
4
100
AcDbLine
10
987.130393763452
20
680.517408188389
30
0.0
11
987.130393763452
21
605.517408188389
31
0.0
0
TEXT
5
48d
100
AcDbEntity
8
0-3
62
4
100
AcDbText
10
981.560
20
633.192
30
0.0
40
16.830
41
0.586
50
90.000
1
75
72
1
11
983.430
21
644.442
31
0.0
100
AcDbText
73
1
0
POLYLINE
5
48e
100
AcDbEntity
  8
0-3
6
CONTINUOUS
62
4
100
AcDb2dPolyline
66
1
10
0
20
0
70
1
40
2.000
41
2.000
0
VERTEX
5
48f
100
AcDbEntity
  8
0-3
6
CONTINUOUS
62
4
100
AcDbVertex
100
AcDb2dVertex
10
986.130
20
680.517
30
0.0
42
1.000
0
VERTEX
5
490
100
AcDbEntity
  8
0-3
6
CONTINUOUS
62
4
100
AcDbVertex
100
AcDb2dVertex
10
988.130
20
680.517
30
0.0
42
1.000
0
SEQEND
5
491
100
AcDbEntity
  8
0-3
0
POLYLINE
5
492
100
AcDbEntity
  8
0-3
6
CONTINUOUS
62
4
100
AcDb2dPolyline
66
1
10
0
20
0
70
1
40
2.000
41
2.000
0
VERTEX
5
493
100
AcDbEntity
  8
0-3
6
CONTINUOUS
62
4
100
AcDbVertex
100
AcDb2dVertex
10
986.130
20
605.517
30
0.0
42
1.000
0
VERTEX
5
494
100
AcDbEntity
  8
0-3
6
CONTINUOUS
62
4
100
AcDbVertex
100
AcDb2dVertex
10
988.130
20
605.517
30
0.0
42
1.000
0
SEQEND
5
495
100
AcDbEntity
  8
0-3
0
LINE
5
496
100
AcDbEntity
8
0-3
6
CONTINUOUS
62
4
100
AcDbLine
10
987.130393763452
20
680.517408188389
30
0.0
11
1037.936170905774
21
680.517408188389
31
0.0
0
LINE
5
497
100
AcDbEntity
8
0-3
6
CONTINUOUS
62
4
100
AcDbLine
10
987.130393763452
20
605.517408188389
30
0.0
11
1037.936170905774
21
605.517408188389
31
0.0
0
LINE
5
498
100
AcDbEntity
8
0-3
6
CONTINUOUS
62
2
100
AcDbLine
10
891.422884668453
20
869.577918757427
30
0.0
11
297.422884668453
21
869.577918757427
31
0.0
0
POLYLINE
5
499
100
AcDbEntity
8
0-3
6
CONTINUOUS
62
  2
100
AcDb2dPolyline
66
1
10
0.0
20
0.0
30
0.0
70
0
0
VERTEX
5
49a
100
AcDbEntity
8
0-3
6
CONTINUOUS
62
  2
100
AcDbVertex
100
AcDb2dVertex
10
297.422884668453
20
851.077918757427
30
0.0
0
VERTEX
5
49b
100
AcDbEntity
8
0-3
6
CONTINUOUS
62
  2
100
AcDbVertex
100
AcDb2dVertex
10
891.422884668453
20
851.077918757427
30
0.0
0
VERTEX
5
49c
100
AcDbEntity
8
0-3
6
CONTINUOUS
62
  2
100
AcDbVertex
100
AcDb2dVertex
10
891.422884668453
20
869.577918757427
30
0.0
0
SEQEND
5
49d
100
AcDbEntity
8
0-3
0
LINE
5
49e
100
AcDbEntity
8
0-3
6
CONTINUOUS
62
2
100
AcDbLine
10
297.422884668453
20
869.577918757427
30
0.0
11
297.422884668453
21
851.077918757427
31
0.0
0
LINE
5
49f
100
AcDbEntity
8
0-3
6
CONTINUOUS
62
4
100
AcDbLine
10
297.422884668453
20
916.012367453906
30
0.0
11
891.422884668453
21
916.012367453906
31
0.0
0
TEXT
5
4a0
100
AcDbEntity
8
0-3
62
4
100
AcDbText
10
578.973
20
924.082
30
0.0
40
16.830
41
0.597
50
0.000
1
594
72
1
11
595.848
21
922.212
31
0.0
100
AcDbText
73
1
0
POLYLINE
5
4a1
100
AcDbEntity
  8
0-3
6
CONTINUOUS
62
4
100
AcDb2dPolyline
66
1
10
0
20
0
70
1
40
2.000
41
2.000
0
VERTEX
5
4a2
100
AcDbEntity
  8
0-3
6
CONTINUOUS
62
4
100
AcDbVertex
100
AcDb2dVertex
10
296.423
20
916.012
30
0.0
42
1.000
0
VERTEX
5
4a3
100
AcDbEntity
  8
0-3
6
CONTINUOUS
62
4
100
AcDbVertex
100
AcDb2dVertex
10
298.423
20
916.012
30
0.0
42
1.000
0
SEQEND
5
4a4
100
AcDbEntity
  8
0-3
0
POLYLINE
5
4a5
100
AcDbEntity
  8
0-3
6
CONTINUOUS
62
4
100
AcDb2dPolyline
66
1
10
0
20
0
70
1
40
2.000
41
2.000
0
VERTEX
5
4a6
100
AcDbEntity
  8
0-3
6
CONTINUOUS
62
4
100
AcDbVertex
100
AcDb2dVertex
10
890.423
20
916.012
30
0.0
42
1.000
0
VERTEX
5
4a7
100
AcDbEntity
  8
0-3
6
CONTINUOUS
62
4
100
AcDbVertex
100
AcDb2dVertex
10
892.423
20
916.012
30
0.0
42
1.000
0
SEQEND
5
4a8
100
AcDbEntity
  8
0-3
0
LINE
5
4a9
100
AcDbEntity
8
0-3
6
CONTINUOUS
62
4
100
AcDbLine
10
297.422884668453
20
916.012367453906
30
0.0
11
297.422884668453
21
869.577918757427
31
0.0
0
LINE
5
4aa
100
AcDbEntity
8
0-3
6
CONTINUOUS
62
4
100
AcDbLine
10
891.422884668453
20
916.012367453906
30
0.0
11
891.422884668453
21
869.577918757427
31
0.0
0
LINE
5
4ab
100
AcDbEntity
8
0-3
6
CONTINUOUS
62
4
100
AcDbLine
10
246.617107526131
20
869.577918757427
30
0.0
11
246.617107526131
21
851.077918757427
31
0.0
0
POLYLINE
5
4ac
100
AcDbEntity
  8
0-3
6
CONTINUOUS
62
4
100
AcDb2dPolyline
66
1
10
0
20
0
70
1
40
2.000
41
2.000
0
VERTEX
5
4ad
100
AcDbEntity
  8
0-3
6
CONTINUOUS
62
4
100
AcDbVertex
100
AcDb2dVertex
10
245.617
20
869.578
30
0.0
42
1.000
0
VERTEX
5
4ae
100
AcDbEntity
  8
0-3
6
CONTINUOUS
62
4
100
AcDbVertex
100
AcDb2dVertex
10
247.617
20
869.578
30
0.0
42
1.000
0
SEQEND
5
4af
100
AcDbEntity
  8
0-3
0
POLYLINE
5
4b0
100
AcDbEntity
  8
0-3
6
CONTINUOUS
62
4
100
AcDb2dPolyline
66
1
10
0
20
0
70
1
40
2.000
41
2.000
0
VERTEX
5
4b1
100
AcDbEntity
  8
0-3
6
CONTINUOUS
62
4
100
AcDbVertex
100
AcDb2dVertex
10
245.617
20
851.078
30
0.0
42
1.000
0
VERTEX
5
4b2
100
AcDbEntity
  8
0-3
6
CONTINUOUS
62
4
100
AcDbVertex
100
AcDb2dVertex
10
247.617
20
851.078
30
0.0
42
1.000
0
SEQEND
5
4b3
100
AcDbEntity
  8
0-3
0
LINE
5
4b4
100
AcDbEntity
8
0-3
6
CONTINUOUS
62
4
100
AcDbLine
10
246.617107526131
20
869.577918757427
30
0.0
11
297.422884668453
21
869.577918757427
31
0.0
0
LINE
5
4b5
100
AcDbEntity
8
0-3
6
CONTINUOUS
62
4
100
AcDbLine
10
246.617107526131
20
851.077918757427
30
0.0
11
297.422884668453
21
851.077918757427
31
0.0
0
LINE
5
4b6
100
AcDbEntity
8
F-0
6
CONTINUOUS
62
7
100
AcDbLine
10
228.391337053920
20
888.457709629251
30
0.0
11
194.959532248611
21
888.457709629251
31
0.0
0
LINE
5
4b7
100
AcDbEntity
8
F-0
6
CONTINUOUS
62
7
100
AcDbLine
10
211.675434651266
20
917.410501885012
30
0.0
11
194.959532248611
21
888.457709629251
31
0.0
0
LINE
5
4b8
100
AcDbEntity
8
F-0
6
CONTINUOUS
62
7
100
AcDbLine
10
211.675434651266
20
917.410501885012
30
0.0
11
228.391337053920
21
888.457709629251
31
0.0
0
TEXT
5
4b9
100
AcDbEntity
8
F-0
62
7
100
AcDbText
10
208.525
20
893.902
30
0.0
40
12.623
41
0.538
50
0.000
1
2
72
1
11
212.300
21
900.349
31
0.0
100
AcDbText
73
2
0
LINE
5
4ba
100
AcDbEntity
8
F-0
6
CONTINUOUS
62
7
100
AcDbLine
10
574.122164893448
20
937.116122436296
30
0.0
11
540.690360088139
21
937.116122436296
31
0.0
0
LINE
5
4bb
100
AcDbEntity
8
F-0
6
CONTINUOUS
62
7
100
AcDbLine
10
557.406262490794
20
966.068914692057
30
0.0
11
540.690360088139
21
937.116122436296
31
0.0
0
LINE
5
4bc
100
AcDbEntity
8
F-0
6
CONTINUOUS
62
7
100
AcDbLine
10
557.406262490794
20
966.068914692057
30
0.0
11
574.122164893448
21
937.116122436296
31
0.0
0
TEXT
5
4bd
100
AcDbEntity
8
F-0
62
7
100
AcDbText
10
554.256
20
942.560
30
0.0
40
12.623
41
0.538
50
0.000
1
2
72
1
11
558.031
21
949.008
31
0.0
100
AcDbText
73
2
0
POLYLINE
5
4be
100
AcDbEntity
8
0-3
6
CONTINUOUS
62
  2
100
AcDb2dPolyline
66
1
10
0.0
20
0.0
30
0.0
70
0
0
VERTEX
5
4bf
100
AcDbEntity
8
0-3
6
CONTINUOUS
62
  2
100
AcDbVertex
100
AcDb2dVertex
10
1802.577115331547
20
680.517408188389
30
0.0
0
VERTEX
5
4c0
100
AcDbEntity
8
0-3
6
CONTINUOUS
62
  2
100
AcDbVertex
100
AcDb2dVertex
10
1208.577115331547
20
680.517408188389
30
0.0
0
VERTEX
5
4c1
100
AcDbEntity
8
0-3
6
CONTINUOUS
62
  2
100
AcDbVertex
100
AcDb2dVertex
10
1208.577115331547
20
605.517408188389
30
0.0
0
SEQEND
5
4c2
100
AcDbEntity
8
0-3
0
LINE
5
4c3
100
AcDbEntity
8
0-3
6
CONTINUOUS
62
2
100
AcDbLine
10
1802.577115331547
20
605.517408188389
30
0.0
11
1802.577115331547
21
680.517408188389
31
0.0
0
LINE
5
4c4
100
AcDbEntity
8
0-3
6
CONTINUOUS
62
2
100
AcDbLine
10
1208.577115331547
20
605.517408188389
30
0.0
11
1802.577115331547
21
605.517408188389
31
0.0
0
LINE
5
4c5
100
AcDbEntity
8
0-3
6
CONTINUOUS
62
4
100
AcDbLine
10
1208.577115331547
20
726.951856884868
30
0.0
11
1270.577115331547
21
726.951856884868
31
0.0
0
POLYLINE
5
4c6
100
AcDbEntity
  8
0-3
6
CONTINUOUS
62
4
100
AcDb2dPolyline
66
1
10
0
20
0
70
1
40
2.000
41
2.000
0
VERTEX
5
4c7
100
AcDbEntity
  8
0-3
6
CONTINUOUS
62
4
100
AcDbVertex
100
AcDb2dVertex
10
1207.577
20
726.952
30
0.0
42
1.000
0
VERTEX
5
4c8
100
AcDbEntity
  8
0-3
6
CONTINUOUS
62
4
100
AcDbVertex
100
AcDb2dVertex
10
1209.577
20
726.952
30
0.0
42
1.000
0
SEQEND
5
4c9
100
AcDbEntity
  8
0-3
0
POLYLINE
5
4ca
100
AcDbEntity
  8
0-3
6
CONTINUOUS
62
4
100
AcDb2dPolyline
66
1
10
0
20
0
70
1
40
2.000
41
2.000
0
VERTEX
5
4cb
100
AcDbEntity
  8
0-3
6
CONTINUOUS
62
4
100
AcDbVertex
100
AcDb2dVertex
10
1269.577
20
726.952
30
0.0
42
1.000
0
VERTEX
5
4cc
100
AcDbEntity
  8
0-3
6
CONTINUOUS
62
4
100
AcDbVertex
100
AcDb2dVertex
10
1271.577
20
726.952
30
0.0
42
1.000
0
SEQEND
5
4cd
100
AcDbEntity
  8
0-3
0
TEXT
5
4ce
100
AcDbEntity
8
0-3
62
7
100
AcDbText
10
1229.752
20
732.522
30
0.0
40
16.830
41
0.542
50
0.000
1
62
72
1
11
1241.002
21
730.652
31
0.0
100
AcDbText
73
1
0
LINE
5
4cf
100
AcDbEntity
8
0-3
6
CONTINUOUS
62
4
100
AcDbLine
10
1270.577115331547
20
726.951856884868
30
0.0
11
1740.577115331547
21
726.951856884868
31
0.0
0
POLYLINE
5
4d0
100
AcDbEntity
  8
0-3
6
CONTINUOUS
62
4
100
AcDb2dPolyline
66
1
10
0
20
0
70
1
40
2.000
41
2.000
0
VERTEX
5
4d1
100
AcDbEntity
  8
0-3
6
CONTINUOUS
62
4
100
AcDbVertex
100
AcDb2dVertex
10
1739.577
20
726.952
30
0.0
42
1.000
0
VERTEX
5
4d2
100
AcDbEntity
  8
0-3
6
CONTINUOUS
62
4
100
AcDbVertex
100
AcDb2dVertex
10
1741.577
20
726.952
30
0.0
42
1.000
0
SEQEND
5
4d3
100
AcDbEntity
  8
0-3
0
TEXT
5
4d4
100
AcDbEntity
8
0-3
62
7
100
AcDbText
10
1490.127
20
732.522
30
0.0
40
16.830
41
0.641
50
0.000
1
470
72
1
11
1507.002
21
730.652
31
0.0
100
AcDbText
73
1
0
LINE
5
4d5
100
AcDbEntity
8
0-3
6
CONTINUOUS
62
4
100
AcDbLine
10
1740.577115331547
20
726.951856884868
30
0.0
11
1802.577115331547
21
726.951856884868
31
0.0
0
POLYLINE
5
4d6
100
AcDbEntity
  8
0-3
6
CONTINUOUS
62
4
100
AcDb2dPolyline
66
1
10
0
20
0
70
1
40
2.000
41
2.000
0
VERTEX
5
4d7
100
AcDbEntity
  8
0-3
6
CONTINUOUS
62
4
100
AcDbVertex
100
AcDb2dVertex
10
1801.577
20
726.952
30
0.0
42
1.000
0
VERTEX
5
4d8
100
AcDbEntity
  8
0-3
6
CONTINUOUS
62
4
100
AcDbVertex
100
AcDb2dVertex
10
1803.577
20
726.952
30
0.0
42
1.000
0
SEQEND
5
4d9
100
AcDbEntity
  8
0-3
0
TEXT
5
4da
100
AcDbEntity
8
0-3
62
7
100
AcDbText
10
1761.752
20
732.522
30
0.0
40
16.830
41
0.542
50
0.000
1
62
72
1
11
1773.002
21
730.652
31
0.0
100
AcDbText
73
1
0
LINE
5
4db
100
AcDbEntity
8
0-3
6
CONTINUOUS
62
4
100
AcDbLine
10
1906.907109990710
20
605.517408188389
30
0.0
11
1740.577115331547
21
605.517408188389
31
0.0
0
LINE
5
4dc
100
AcDbEntity
8
0-3
6
CONTINUOUS
62
4
100
AcDbLine
10
1208.577115331547
20
726.951856884868
30
0.0
11
1208.577115331547
21
645.517408188389
31
0.0
0
LINE
5
4dd
100
AcDbEntity
8
0-3
6
CONTINUOUS
62
4
100
AcDbLine
10
1270.577115331547
20
726.951856884868
30
0.0
11
1270.577115331547
21
645.517408188389
31
0.0
0
LINE
5
4de
100
AcDbEntity
8
0-3
6
CONTINUOUS
62
4
100
AcDbLine
10
1740.577115331547
20
726.951856884868
30
0.0
11
1740.577115331547
21
645.517408188389
31
0.0
0
LINE
5
4df
100
AcDbEntity
8
0-3
6
CONTINUOUS
62
4
100
AcDbLine
10
1802.577115331547
20
726.951856884868
30
0.0
11
1802.577115331547
21
645.517408188389
31
0.0
0
LINE
5
4e0
100
AcDbEntity
8
0-3
6
CONTINUOUS
62
4
100
AcDbLine
10
1906.907109990710
20
645.517408188389
30
0.0
11
1740.577115331547
21
645.517408188389
31
0.0
0
LINE
5
4e1
100
AcDbEntity
8
0-3
6
CONTINUOUS
62
4
100
AcDbLine
10
1906.907109990710
20
645.517408188389
30
0.0
11
1906.907109990710
21
605.517408188389
31
0.0
0
POLYLINE
5
4e2
100
AcDbEntity
  8
0-3
6
CONTINUOUS
62
4
100
AcDb2dPolyline
66
1
10
0
20
0
70
1
40
2.000
41
2.000
0
VERTEX
5
4e3
100
AcDbEntity
  8
0-3
6
CONTINUOUS
62
4
100
AcDbVertex
100
AcDb2dVertex
10
1905.907
20
645.517
30
0.0
42
1.000
0
VERTEX
5
4e4
100
AcDbEntity
  8
0-3
6
CONTINUOUS
62
4
100
AcDbVertex
100
AcDb2dVertex
10
1907.907
20
645.517
30
0.0
42
1.000
0
SEQEND
5
4e5
100
AcDbEntity
  8
0-3
0
POLYLINE
5
4e6
100
AcDbEntity
  8
0-3
6
CONTINUOUS
62
4
100
AcDb2dPolyline
66
1
10
0
20
0
70
1
40
2.000
41
2.000
0
VERTEX
5
4e7
100
AcDbEntity
  8
0-3
6
CONTINUOUS
62
4
100
AcDbVertex
100
AcDb2dVertex
10
1905.907
20
605.517
30
0.0
42
1.000
0
VERTEX
5
4e8
100
AcDbEntity
  8
0-3
6
CONTINUOUS
62
4
100
AcDbVertex
100
AcDb2dVertex
10
1907.907
20
605.517
30
0.0
42
1.000
0
SEQEND
5
4e9
100
AcDbEntity
  8
0-3
0
TEXT
5
4ea
100
AcDbEntity
8
0-3
62
7
100
AcDbText
10
1901.337
20
615.692
30
0.0
40
16.830
41
0.657
50
90.000
1
40
72
1
11
1903.207
21
626.942
31
0.0
100
AcDbText
73
1
0
CIRCLE
5
4eb
100
AcDbEntity
8
0-3
6
CONTINUOUS
62
2
100
AcDbCircle
10
1270.577115331547
20
645.517408188389
30
0.0
40
1.500000000000
0
CIRCLE
5
4ec
100
AcDbEntity
8
0-3
6
CONTINUOUS
62
2
100
AcDbCircle
10
1740.577115331547
20
645.517408188389
30
0.0
40
1.500000000000
0
POLYLINE
5
4ed
100
AcDbEntity
8
0-3
6
CONTINUOUS
62
  7
100
AcDb2dPolyline
66
1
10
0.0
20
0.0
30
0.0
70
0
0
VERTEX
5
4ee
100
AcDbEntity
8
0-3
6
CONTINUOUS
62
  7
100
AcDbVertex
100
AcDb2dVertex
10
1271.711183254319
20
643.289018055943
30
0.0
0
VERTEX
5
4ef
100
AcDbEntity
8
0-3
6
CONTINUOUS
62
  7
100
AcDbVertex
100
AcDb2dVertex
10
1321.110396196382
20
557.727071386376
30
0.0
0
VERTEX
5
4f0
100
AcDbEntity
8
0-3
6
CONTINUOUS
62
  7
100
AcDbVertex
100
AcDb2dVertex
10
1344.301100217132
20
557.727071386376
30
0.0
0
SEQEND
5
4f1
100
AcDbEntity
8
0-3
0
MTEXT
5
4f2
100
AcDbEntity
8
0-3
62
7
100
AcDbMText
10
1352.679
20
560.177
30
0.0
40
15.895
41
0.000
71
4
72
1
1
\W1.093;{\W0.787;2-}φ{\W0.787;3}　深さ{\W0.787;10mm}
7
STANDARD
11
1.00000
21
0.00000
31
0.0
0
LINE
5
4f3
100
AcDbEntity
8
0-3
6
CONTINUOUS
62
2
100
AcDbLine
10
112.117139978067
20
110.855404803323
30
0.0
11
495.933219451432
21
110.855404803323
31
0.0
0
MTEXT
5
4f4
100
AcDbEntity
8
F-0
62
7
100
AcDbMText
10
125.683
20
112.833
30
0.0
40
11.921
41
0.000
71
4
72
1
1
\W1.134;{\W0.817;1}　　{\W0.817;2017.01.17}）寸法変更{\W0.817; 598mm}　→{\W0.817; 596mm}
7
STANDARD
11
1.00000
21
0.00000
31
0.0
0
MTEXT
5
4f5
100
AcDbEntity
8
F-0
62
7
100
AcDbMText
10
125.683
20
158.416
30
0.0
40
11.921
41
0.000
71
4
72
1
1
\W1.134;{\W0.817;1}　　{\W0.817;2020.05.07}）寸法変更{\W0.817; 596mm}　→{\W0.817; 594mm}
7
STANDARD
11
1.00000
21
0.00000
31
0.0
0
MTEXT
5
4f6
100
AcDbEntity
8
F-0
62
7
100
AcDbMText
10
125.683
20
203.998
30
0.0
40
11.921
41
0.000
71
4
72
1
1
\W1.134;{\W0.817;2}　　{\W0.817;2020.05.07}）寸法変更{\W0.817;18.3mm}　→{\W0.817;18.5mm}
7
STANDARD
11
1.00000
21
0.00000
31
0.0
0
TEXT
5
4f7
100
AcDbEntity
8
F-0
62
7
100
AcDbText
10
1740.600
20
152.719
30
0.0
40
12.623
41
0.999
50
0.000
1
ステンレス巾木
72
0
11
1740.000
21
159.167
31
0.0
100
AcDbText
73
2
0
MTEXT
5
4f8
100
AcDbEntity
8
F-0
62
7
100
AcDbMText
10
1882.475
20
122.567
30
0.0
40
11.921
41
0.000
71
5
72
1
1
\W1.134;{\W0.817;2016}年{\W0.817;10}月{\W0.817;11}日
7
STANDARD
11
1.00000
21
0.00000
31
0.0
0
TEXT
5
4f9
100
AcDbEntity
8
0-3
62
7
100
AcDbText
10
241.047
20
839.253
30
0.0
40
16.830
41
0.768
50
90.000
1
18.5
72
1
11
242.917
21
861.753
31
0.0
100
AcDbText
73
1
0
LINE
5
4fa
100
AcDbEntity
8
F-0
6
CONTINUOUS
62
7
100
AcDbLine
10
574.122164893448
20
745.555611867258
30
0.0
11
540.690360088139
21
745.555611867258
31
0.0
0
LINE
5
4fb
100
AcDbEntity
8
F-0
6
CONTINUOUS
62
7
100
AcDbLine
10
557.406262490794
20
774.508404123019
30
0.0
11
540.690360088139
21
745.555611867258
31
0.0
0
LINE
5
4fc
100
AcDbEntity
8
F-0
6
CONTINUOUS
62
7
100
AcDbLine
10
557.406262490794
20
774.508404123019
30
0.0
11
574.122164893448
21
745.555611867258
31
0.0
0
TEXT
5
4fd
100
AcDbEntity
8
F-0
62
7
100
AcDbText
10
554.256
20
751.000
30
0.0
40
12.623
41
0.538
50
0.000
1
2
72
1
11
558.031
21
757.447
31
0.0
100
AcDbText
73
2
0
LINE
5
4fe
100
AcDbEntity
8
F-0
6
CONTINUOUS
62
2
100
AcDbLine
10
544.422884668453
20
630.080759013391
30
0.0
11
563.064179858203
21
635.075679005354
31
0.0
0
LINE
5
4ff
100
AcDbEntity
8
F-0
6
CONTINUOUS
62
2
100
AcDbLine
10
544.422884668453
20
630.080759013391
30
0.0
11
644.422884668453
21
630.080759013391
31
0.0
0
LINE
5
500
100
AcDbEntity
8
F-0
6
CONTINUOUS
62
2
100
AcDbLine
10
625.781589478703
20
625.085839021427
30
0.0
11
644.422884668453
21
630.080759013391
31
0.0
0
TEXT
5
501
100
AcDbEntity
8
F-0
62
7
100
AcDbText
10
551.473
20
641.676
30
0.0
40
16.830
41
0.963
50
0.000
1
ＨＬ方向
72
1
11
596.473
21
639.806
31
0.0
100
AcDbText
73
1
0
ENDSEC
 0
SECTION
  2
OBJECTS
 0
DICTIONARY
  5
C
100
AcDbDictionary
  3
ACAD_GROUP
350
D
  3
ACAD_MLINESTYLE
350
E
 0
DICTIONARY
  5
D
100
AcDbDictionary
 0
DICTIONARY
  5
E
100
AcDbDictionary
  3
STANDARD
350
13
0
MLINESTYLE
  5
13
100
AcDbMlineStyle
  2
STANDARD
 70
    0
3

62
256
51
90.0
52
90.0
71
0
0
ENDSEC
0
EOF
