0
SECTION
2
HEADER
9
$ACADVER
1
AC1012
9
$DWGCODEPAGE
3
ANSI_932
9
$EXTMIN
10
0.000
20
0.000
30
0.0
9
$EXTMAX
10
2100.000
20
1485.000
30
0.0
9
$LIMMIN
10
0.000
20
0.000
9
$LIMMAX
10
2100.000
20
1485.000
9
$DIMSCALE
40
5.000000
9
$LTSCALE
40
5.000
9
$PDMODE
70
0
9
$PDSIZE
40
40.0
9
$HANDSEED
5
61bb9
9
$UNITMODE
70
0
9
$VISRETAIN
70
0
9
$PLINEGEN
70
0
9
$PSLTSCALE
70
1
9
$TREEDEPTH
70
3020
9
$CMLSTYLE
2
STANDARD
9
$CMLJUST
70
0
9
$CMLSCALE
40
1.0
0
ENDSEC
0
SECTION
2
TABLES
0
TABLE
2
VPORT
5
190
100
AcDbSymbolTable
70
2
0
VPORT
5
191
100
AcDbSymbolTableRecord
100
AcDbViewportTableRecord
2
*ACTIVE
70
0
10
0.0
20
0.0
11
1.0
21
1.0
12
1050.000
22
742.500
13
0.0
23
0.0
14
1.0
24
1.0
15
0.0
25
0.0
16
0.0
26
0.0
36
1.0
17
0.0
27
0.0
37
0.0
40
1521.739
41
2.0
42
50.0
43
0.0
44
0.0
50
0.0
51
0.0
71
0
72
1000
73
1
74
1
75
0
76
0
77
0
78
0
0
ENDTAB
0
TABLE
2
LTYPE
5
1f4
100
AcDbSymbolTable
70
9
0
LTYPE
5
1f5
100
AcDbSymbolTableRecord
100
AcDbLinetypeTableRecord
2
BYBLOCK
70
 64
3

72
 65
73
  0
40
0.0
0
LTYPE
5
1f6
100
AcDbSymbolTableRecord
100
AcDbLinetypeTableRecord
2
BYLAYER
70
 64
3

72
 65
73
  0
40
0.0
0
LTYPE
5
1f7
100
AcDbSymbolTableRecord
100
AcDbLinetypeTableRecord
2
CONTINUOUS
70
64
3
SolidLine
72
65
73
0
40
0.0
0
LTYPE
5
1f8
100
AcDbSymbolTableRecord
100
AcDbLinetypeTableRecord
2
DOT
70
64
3
--  --  --  --  --  --  --  --     
72
65
73
2
40
3.000
49
1.000
74
0
49
-2.000
74
0
0
LTYPE
5
1f9
100
AcDbSymbolTableRecord
100
AcDbLinetypeTableRecord
2
DASHED
70
64
3
----    ----    ----    ----    
72
65
73
2
40
5.000
49
2.000
74
0
49
-3.000
74
0
0
LTYPE
5
1fa
100
AcDbSymbolTableRecord
100
AcDbLinetypeTableRecord
2
DASHED2
70
64
3
------  ------  ------  ------ 
72
65
73
2
40
10.000
49
4.000
74
0
49
-6.000
74
0
0
LTYPE
5
1fb
100
AcDbSymbolTableRecord
100
AcDbLinetypeTableRecord
2
CENTER
70
64
3
----- - ----- - ----- - ----- - 
72
65
73
4
40
10.000
49
6.000
74
0
49
-3.000
74
0
49
1.000
74
0
49
-3.000
74
0
0
LTYPE
5
1fc
100
AcDbSymbolTableRecord
100
AcDbLinetypeTableRecord
2
CENTER2
70
64
3
----------  --  ----------  -- 
72
65
73
4
40
17.000
49
12.000
74
0
49
-5.000
74
0
49
2.000
74
0
49
-5.000
74
0
0
LTYPE
5
1fd
100
AcDbSymbolTableRecord
100
AcDbLinetypeTableRecord
2
PHANTOM
70
64
3
--- - - --- - - --- - - --- - -
72
65
73
6
40
13.000
49
5.000
74
0
49
-3.000
74
0
49
1.000
74
0
49
-3.000
74
0
49
1.000
74
0
49
-3.000
74
0
0
LTYPE
5
1fe
100
AcDbSymbolTableRecord
100
AcDbLinetypeTableRecord
2
PHANTOM2
70
64
3
--------  -  -  --------  -  -
72
65
73
6
40
20.000
49
6.000
74
0
49
-5.000
74
0
49
2.000
74
0
49
-5.000
74
0
49
2.000
74
0
49
-5.000
74
0
0
LTYPE
5
1ff
100
AcDbSymbolTableRecord
100
AcDbLinetypeTableRecord
2
HIDDEN
70
64
3
-   -   -   -   -   -   -   -   
72
65
73
2
40
3.000
49
0.500
74
0
49
-2.500
74
0
0
ENDTAB
0
TABLE
2
STYLE
5
200
100
AcDbSymbolTable
70
1
0
STYLE
5
201
100
AcDbSymbolTableRecord
100
AcDbTextStyleTableRecord
2
STANDARD
70
0
40
0.0
41
1.0
50
0.0
71
0
42
0.0
3
txt.shx
4
extfont.shx
0
STYLE
5
202
100
AcDbSymbolTableRecord
100
AcDbTextStyleTableRecord
2
TATEGAKI
70
4
40
0.0
41
1.0
50
0.0
71
0
42
0.0
3
txt.shx
4
extfont.shx
0
STYLE
5
203
100
AcDbSymbolTableRecord
100
AcDbTextStyleTableRecord
2
 
70
0
40
0.0
41
0.75
50
0.0
71
0
42
0.0
3
txt.shx
4
extfont.shx
0
STYLE
5
204
100
AcDbSymbolTableRecord
100
AcDbTextStyleTableRecord
2
_Gothic_
70
0
40
1.0
41
1.0
50
0.0
71
0
42
10.0
3

4

1001
ACAD
1000
MS Gothic
1071
32817
0
STYLE
5
205
100
AcDbSymbolTableRecord
100
AcDbTextStyleTableRecord
2
_TateGothic_
70
4
40
0.0
41
1.0
50
0.0
71
0
42
0.0
3
@MS Gothic
4

0
ENDTAB
0
TABLE
2
VIEW
5
206
100
AcDbSymbolTable
70
0
0
ENDTAB
0
TABLE
2
UCS
5
207
100
AcDbSymbolTable
70
0
0
ENDTAB
0
TABLE
2
APPID
5
208
100
AcDbSymbolTable
70
1
0
APPID
5
209
100
AcDbSymbolTableRecord
100
AcDbRegAppTableRecord
2
ACAD
70
0
0
ENDTAB
0
TABLE
2
DIMSTYLE
5
403
100
AcDbSymbolTable
70
1
0
DIMSTYLE
105
404
100
AcDbSymbolTableRecord
100
AcDbDimStyleTableRecord
2
JAC_DIM
3

4

5

6

7

70
0
40
5.0
41
10.000
42
0.000
43
0.0
44
0.0
45
0.0
46
0.0
47
0.0
48
0.0
73
0
74
0
77
1
78
8
140
0.000
170
0
171
2
172
0
173
0
174
0
175
0
176
0
177
0
178
0
270
2
271
0
272
0
273
2
274
2
340
201
275
0
280
0
281
0
282
0
283
0
284
0
285
0
286
0
287
3
288
0
0
ENDTAB
0
TABLE
2
BLOCK_RECORD
5
405
100
AcDbSymbolTable
70
0
0
BLOCK_RECORD
5
406
100
AcDbSymbolTableRecord
100
AcDbBlockTableRecord
2
*MODEL_SPACE
0
BLOCK_RECORD
5
407
100
AcDbSymbolTableRecord
100
AcDbBlockTableRecord
2
*PAPER_SPACE
0
BLOCK_RECORD
5
408
100
AcDbSymbolTableRecord
100
AcDbBlockTableRecord
2
_JACCONVERT_
0
ENDTAB
0
TABLE
2
LAYER
5
409
100
AcDbSymbolTable
70
10
0
LAYER
5
40a
100
AcDbSymbolTableRecord
100
AcDbLayerTableRecord
2
0
70
0
62
7
6
CONTINUOUS
0
LAYER
5
40b
100
AcDbSymbolTableRecord
100
AcDbLayerTableRecord
2
0-01-a
70
0
62
7
6
CONTINUOUS
0
LAYER
5
40c
100
AcDbSymbolTableRecord
100
AcDbLayerTableRecord
2
F-0
70
0
62
7
6
CONTINUOUS
0
LAYER
5
40d
100
AcDbSymbolTableRecord
100
AcDbLayerTableRecord
2
F-F_J_ADD
70
0
62
-7
6
CONTINUOUS
0
ENDTAB
0
ENDSEC
0
SECTION
2
BLOCKS
0
BLOCK
5
40e
100
AcDbEntity
67
1
8
0
100
AcDbBlockBegin
2
*MODEL_SPACE
70
0
10
0.0
20
0.0
30
0.0
3
*MODEL_SPACE
1

0
ENDBLK
5
40f
100
AcDbEntity
8
0
100
AcDbBlockEnd
0
BLOCK
5
410
100
AcDbEntity
67
1
8
0
100
AcDbBlockBegin
2
*PAPER_SPACE
70
0
10
0.0
20
0.0
30
0.0
3
*PAPER_SPACE
1

0
ENDBLK
5
411
100
AcDbEntity
67
1
8
0
100
AcDbBlockEnd
0
BLOCK
5
412
100
AcDbEntity
8
0
100
AcDbBlockBegin
2
_JACCONVERT_
70
2
10
0.0
20
0.0
30
0.0
3
_JACCONVERT_
1
_JACCONVERT_
0
ATTDEF
5
413
100
AcDbEntity
8
0
62
0
100
AcDbText
10
0.0
20
0.0
30
0.0
40
1.0
1
User:33307E081580834E08362083700830930835B08108A0834F0837B0960FA093
100
AcDbAttributeDefinition
3

2
USER
70
8
0
ATTDEF
5
414
100
AcDbEntity
8
0
62
0
100
AcDbText
10
0.0
20
2.0
30
0.0
40
1.0
1
Date:20/08/03 14:37
100
AcDbAttributeDefinition
3

2
REVDATE
70
8
0
ATTDEF
5
415
100
AcDbEntity
8
0
62
0
100
AcDbText
10
0.0
20
4.0
30
0.0
40
1.0
1
File:W60_fulldoorpanel_stainless.dxf
100
AcDbAttributeDefinition
3

2
FNAME
70
8
0
ATTDEF
5
416
100
AcDbEntity
8
0
62
0
100
AcDbText
10
0.0
20
6.0
30
0.0
40
1.0
1
JacConvert Version3.11 copyright (c) 2001-2016 K.Nakahara
100
AcDbAttributeDefinition
3

2
VER
70
8
0
ENDBLK
5
417
100
AcDbEntity
67
1
8
0
100
AcDbBlockEnd
0
ENDSEC
0
SECTION
2
ENTITIES
0
LINE
5
418
100
AcDbEntity
8
0-01-a
6
CENTER
62
7
100
AcDbLine
10
1640.267044578266
20
1110.550582038686
30
0.0
11
1640.267044578266
21
292.128981581181
31
0.0
0
LINE
5
419
100
AcDbEntity
8
F-0
6
CONTINUOUS
62
2
100
AcDbLine
10
83.927754581963
20
1396.579211986677
30
0.0
11
83.927754581963
21
1356.579211986677
31
0.0
0
LINE
5
41a
100
AcDbEntity
8
F-0
6
CONTINUOUS
62
2
100
AcDbLine
10
2065.000000000000
20
51.666680413323
30
0.0
11
2065.000000000000
21
1433.333319586677
31
0.0
0
POLYLINE
5
41b
100
AcDbEntity
8
F-0
6
CONTINUOUS
62
  2
100
AcDb2dPolyline
66
1
10
0.0
20
0.0
30
0.0
70
0
0
VERTEX
5
41c
100
AcDbEntity
8
F-0
6
CONTINUOUS
62
  2
100
AcDbVertex
100
AcDb2dVertex
10
35.000000000000
20
51.666680413323
30
0.0
0
VERTEX
5
41d
100
AcDbEntity
8
F-0
6
CONTINUOUS
62
  2
100
AcDbVertex
100
AcDb2dVertex
10
35.000000000000
20
1433.333319586677
30
0.0
0
VERTEX
5
41e
100
AcDbEntity
8
F-0
6
CONTINUOUS
62
  2
100
AcDbVertex
100
AcDb2dVertex
10
2065.000000000000
20
1433.333319586677
30
0.0
0
SEQEND
5
41f
100
AcDbEntity
8
F-0
0
LINE
5
420
100
AcDbEntity
8
F-0
6
CONTINUOUS
62
2
100
AcDbLine
10
1050.000000000000
20
1433.333319586677
30
0.0
11
1050.000000000000
21
1508.333319586677
31
0.0
0
LINE
5
421
100
AcDbEntity
8
F-0
6
CONTINUOUS
62
2
100
AcDbLine
10
2140.000000000000
20
742.500000000000
30
0.0
11
2065.000000000000
21
742.500000000000
31
0.0
0
LINE
5
422
100
AcDbEntity
8
F-0
6
CONTINUOUS
62
2
100
AcDbLine
10
35.000000000000
20
51.666680413323
30
0.0
11
2065.000000000000
21
51.666680413323
31
0.0
0
LINE
5
423
100
AcDbEntity
8
F-0
6
CONTINUOUS
62
2
100
AcDbLine
10
1050.000000000000
20
51.666680413323
30
0.0
11
1050.000000000000
21
-23.333319586677
31
0.0
0
LINE
5
424
100
AcDbEntity
8
F-0
6
CONTINUOUS
62
2
100
AcDbLine
10
-40.000000000000
20
742.500000000000
30
0.0
11
35.000000000000
21
742.500000000000
31
0.0
0
LINE
5
425
100
AcDbEntity
8
F-0
6
CONTINUOUS
62
7
100
AcDbLine
10
1557.500000000000
20
76.666680413323
30
0.0
11
1753.750000000000
21
76.666680413323
31
0.0
0
TEXT
5
426
100
AcDbEntity
8
F-0
62
7
100
AcDbText
10
1705.392
20
58.969
30
0.0
40
12.623
41
0.999
50
0.000
1
製図
72
1
11
1722.292
21
65.417
31
0.0
100
AcDbText
73
2
0
TEXT
5
427
100
AcDbEntity
8
F-0
62
7
100
AcDbText
10
1574.558
20
58.969
30
0.0
40
12.623
41
0.999
50
0.000
1
承認
72
1
11
1591.458
21
65.417
31
0.0
100
AcDbText
73
2
0
TEXT
5
428
100
AcDbEntity
8
F-0
62
7
100
AcDbText
10
1639.975
20
58.969
30
0.0
40
12.623
41
0.999
50
0.000
1
照査
72
1
11
1656.875
21
65.417
31
0.0
100
AcDbText
73
2
0
LINE
5
429
100
AcDbEntity
8
F-0
6
CONTINUOUS
62
2
100
AcDbLine
10
1753.750000000000
20
101.666680413323
30
0.0
11
2065.000000000000
21
101.666680413323
31
0.0
0
LINE
5
42a
100
AcDbEntity
8
F-0
6
CONTINUOUS
62
2
100
AcDbLine
10
1557.500000000000
20
139.166680413323
30
0.0
11
2065.000000000000
21
139.166680413323
31
0.0
0
LINE
5
42b
100
AcDbEntity
8
F-0
6
CONTINUOUS
62
2
100
AcDbLine
10
1753.750000000000
20
139.166680413323
30
0.0
11
1753.750000000000
21
51.666680413323
31
0.0
0
LINE
5
42c
100
AcDbEntity
8
F-0
6
CONTINUOUS
62
7
100
AcDbLine
10
1688.333333333333
20
139.166680413323
30
0.0
11
1688.333333333333
21
51.666680413323
31
0.0
0
LINE
5
42d
100
AcDbEntity
8
F-0
6
CONTINUOUS
62
7
100
AcDbLine
10
1622.916666666667
20
214.166680413323
30
0.0
11
1622.916666666667
21
51.666680413323
31
0.0
0
TEXT
5
42e
100
AcDbEntity
8
F-0
62
7
100
AcDbText
10
1565.808
20
190.219
30
0.0
40
12.623
41
0.999
50
0.000
1
製品名
72
1
11
1591.458
21
196.667
31
0.0
100
AcDbText
73
2
0
POLYLINE
5
42f
100
AcDbEntity
8
F-0
6
CONTINUOUS
62
  2
100
AcDb2dPolyline
66
1
10
0.0
20
0.0
30
0.0
70
0
0
VERTEX
5
430
100
AcDbEntity
8
F-0
6
CONTINUOUS
62
  2
100
AcDbVertex
100
AcDb2dVertex
10
1557.500000000000
20
51.666680413323
30
0.0
0
VERTEX
5
431
100
AcDbEntity
8
F-0
6
CONTINUOUS
62
  2
100
AcDbVertex
100
AcDb2dVertex
10
1557.500000000000
20
214.166680413323
30
0.0
0
VERTEX
5
432
100
AcDbEntity
8
F-0
6
CONTINUOUS
62
  2
100
AcDbVertex
100
AcDb2dVertex
10
2065.000000000000
20
214.166680413323
30
0.0
0
SEQEND
5
433
100
AcDbEntity
8
F-0
0
LINE
5
434
100
AcDbEntity
8
F-0
6
CONTINUOUS
62
7
100
AcDbLine
10
1819.166666666667
20
139.166680413323
30
0.0
11
1819.166666666667
21
101.666680413323
31
0.0
0
TEXT
5
435
100
AcDbEntity
8
F-0
62
7
100
AcDbText
10
1762.058
20
115.219
30
0.0
40
12.623
41
0.999
50
0.000
1
作図日
72
1
11
1787.708
21
121.667
31
0.0
100
AcDbText
73
2
0
LINE
5
436
100
AcDbEntity
8
F-0
6
CENTER
62
7
100
AcDbLine
10
2055.263485423809
20
120.416680413323
30
0.0
11
2017.236514559525
21
120.416680413323
31
0.0
0
LINE
5
437
100
AcDbEntity
8
F-0
6
CENTER
62
7
100
AcDbLine
10
2026.228113581621
20
129.533162755171
30
0.0
11
2026.228113581621
21
111.300198071657
31
0.0
0
CIRCLE
5
438
100
AcDbEntity
8
F-0
6
CONTINUOUS
62
7
100
AcDbCircle
10
2026.228113581621
20
120.416680413323
30
0.0
40
3.246966313535
0
CIRCLE
5
439
100
AcDbEntity
8
F-0
6
CONTINUOUS
62
7
100
AcDbCircle
10
2026.228113581621
20
120.416680413323
30
0.0
40
6.877114986206
0
TEXT
5
43a
100
AcDbEntity
8
F-0
62
7
100
AcDbText
10
1950.392
20
152.719
30
0.0
40
12.623
41
0.999
50
0.000
1
縮　尺
72
1
11
1976.042
21
159.167
31
0.0
100
AcDbText
73
2
0
LINE
5
43b
100
AcDbEntity
8
F-0
6
CONTINUOUS
62
7
100
AcDbLine
10
2037.891467447385
20
123.663646726858
30
0.0
11
2052.877465814051
21
127.293795399529
31
0.0
0
POLYLINE
5
43c
100
AcDbEntity
8
F-0
6
CONTINUOUS
62
  7
100
AcDb2dPolyline
66
1
10
0.0
20
0.0
30
0.0
70
0
0
VERTEX
5
43d
100
AcDbEntity
8
F-0
6
CONTINUOUS
62
  7
100
AcDbVertex
100
AcDb2dVertex
10
2037.891467447385
20
123.663646726858
30
0.0
0
VERTEX
5
43e
100
AcDbEntity
8
F-0
6
CONTINUOUS
62
  7
100
AcDbVertex
100
AcDb2dVertex
10
2037.891467447385
20
117.169714099788
30
0.0
0
VERTEX
5
43f
100
AcDbEntity
8
F-0
6
CONTINUOUS
62
  7
100
AcDbVertex
100
AcDb2dVertex
10
2052.877465814051
20
113.539565427118
30
0.0
0
SEQEND
5
440
100
AcDbEntity
8
F-0
0
LINE
5
441
100
AcDbEntity
8
F-0
6
CONTINUOUS
62
7
100
AcDbLine
10
2052.877465814051
20
127.293795399529
30
0.0
11
2052.877465814051
21
113.539565427118
31
0.0
0
TEXT
5
442
100
AcDbEntity
8
F-0
62
7
100
AcDbText
10
1950.392
20
115.219
30
0.0
40
12.623
41
0.999
50
0.000
1
投影法
72
1
11
1976.042
21
121.667
31
0.0
100
AcDbText
73
2
0
LINE
5
443
100
AcDbEntity
8
F-0
6
CONTINUOUS
62
2
100
AcDbLine
10
1942.083333316667
20
176.666680413323
30
0.0
11
1942.083333316667
21
101.666680413323
31
0.0
0
LINE
5
444
100
AcDbEntity
8
F-0
6
CONTINUOUS
62
7
100
AcDbLine
10
2007.499999983334
20
176.666680413323
30
0.0
11
2007.499999983334
21
101.666680413323
31
0.0
0
LINE
5
445
100
AcDbEntity
8
F-0
6
CONTINUOUS
62
7
100
AcDbLine
10
1557.500000000000
20
176.666680413323
30
0.0
11
1942.083333316667
21
176.666680413323
31
0.0
0
LINE
5
446
100
AcDbEntity
8
F-0
6
CONTINUOUS
62
2
100
AcDbLine
10
1942.083333316667
20
176.666680413323
30
0.0
11
2065.000000000000
21
176.666680413323
31
0.0
0
TEXT
5
447
100
AcDbEntity
8
F-0
62
7
100
AcDbText
10
1565.808
20
152.719
30
0.0
40
12.623
1
品　番
41
0.999
50
0.000
100
AcDbText
0
POLYLINE
5
448
100
AcDbEntity
8
F-0
6
CONTINUOUS
62
  2
100
AcDb2dPolyline
66
1
10
0.0
20
0.0
30
0.0
70
0
0
VERTEX
5
449
100
AcDbEntity
8
F-0
6
CONTINUOUS
62
  2
100
AcDbVertex
100
AcDb2dVertex
10
83.927754581963
20
1396.579211986677
30
0.0
0
VERTEX
5
44a
100
AcDbEntity
8
F-0
6
CONTINUOUS
62
  2
100
AcDbVertex
100
AcDb2dVertex
10
525.683035103208
20
1396.579211986677
30
0.0
0
VERTEX
5
44b
100
AcDbEntity
8
F-0
6
CONTINUOUS
62
  2
100
AcDbVertex
100
AcDb2dVertex
10
525.683035103208
20
1356.579211986677
30
0.0
0
SEQEND
5
44c
100
AcDbEntity
8
F-0
0
LINE
5
44d
100
AcDbEntity
8
F-0
6
CONTINUOUS
62
2
100
AcDbLine
10
83.927754581963
20
1356.579211986677
30
0.0
11
525.683035103208
21
1356.579211986677
31
0.0
0
MTEXT
5
44e
100
AcDbEntity
8
F-0
62
7
100
AcDbMText
10
1845.183
20
197.567
30
0.0
40
11.921
41
0.000
71
5
72
1
1
\W1.134;ボッシュ　ビルトイン食器洗い機　幅６０{\W0.817;cm}
7
STANDARD
11
1.00000
21
0.00000
31
0.0
0
MTEXT
5
44f
100
AcDbEntity
8
F-0
62
7
100
AcDbMText
10
1910.075
20
77.717
30
0.0
40
13.908
41
0.000
71
5
72
1
1
\W0.972;株式会社　{\W0.700;G-Place}
7
STANDARD
11
1.00000
21
0.00000
31
0.0
0
MTEXT
5
450
100
AcDbEntity
8
F-0
62
7
100
AcDbMText
10
2019.975
20
160.067
30
0.0
40
11.921
41
0.000
71
4
72
1
1
\W1.134;{\W0.817;1}�
7
STANDARD
11
1.00000
21
0.00000
31
0.0
0
TEXT
5
451
100
AcDbEntity
8
F-0
62
7
100
AcDbText
10
1468.498
20
1357.350
30
0.0
40
12.623
41
0.999
50
0.000
1
【仕様】
72
0
11
1467.898
21
1363.798
31
0.0
100
AcDbText
73
2
0
MTEXT
5
452
100
AcDbEntity
8
F-0
62
7
100
AcDbMText
10
1468.498
20
1339.011
30
0.0
40
11.921
41
0.000
71
4
72
1
1
\W1.134;ＭＤＦ芯地　{\W0.817;442}Ｍ{\W0.817;3 t0.3 }ＨＬ仕上げ貼り／裏面白化粧
7
STANDARD
11
1.00000
21
0.00000
31
0.0
0
TEXT
5
453
100
AcDbEntity
8
F-0
62
7
100
AcDbText
10
1468.498
20
1305.976
30
0.0
40
12.623
41
0.999
50
0.000
1
四方ローカン貼り（ＳＴ４）
72
0
11
1467.898
21
1312.423
31
0.0
100
AcDbText
73
2
0
TEXT
5
454
100
AcDbEntity
8
F-0
62
7
100
AcDbText
10
1723.100
20
152.719
30
0.0
40
12.623
41
0.999
50
0.000
1
ステンレスドア面材
72
1
11
1801.250
21
159.167
31
0.0
100
AcDbText
73
2
0
MTEXT
5
455
100
AcDbEntity
8
F-0
62
7
100
AcDbMText
10
1882.475
20
122.567
30
0.0
40
11.921
41
0.000
71
5
72
1
1
\W1.134;{\W0.817;2020}年{\W0.817;6}月{\W0.817;18}日
7
STANDARD
11
1.00000
21
0.00000
31
0.0
0
LINE
5
456
100
AcDbEntity
8
0-01-a
6
CONTINUOUS
62
2
100
AcDbLine
10
871.416169510988
20
1074.192206473212
30
0.0
11
277.416169510988
21
1074.192206473212
31
0.0
0
LINE
5
457
100
AcDbEntity
8
0-01-a
6
CONTINUOUS
62
2
100
AcDbLine
10
1937.267044578265
20
1074.192206473212
30
0.0
11
1343.267044578265
21
1074.192206473212
31
0.0
0
POLYLINE
5
458
100
AcDbEntity
8
0-01-a
6
CONTINUOUS
62
  2
100
AcDb2dPolyline
66
1
10
0.0
20
0.0
30
0.0
70
0
0
VERTEX
5
459
100
AcDbEntity
8
0-01-a
6
CONTINUOUS
62
  2
100
AcDbVertex
100
AcDb2dVertex
10
277.416169510988
20
1211.394810198043
30
0.0
0
VERTEX
5
45a
100
AcDbEntity
8
0-01-a
6
CONTINUOUS
62
  2
100
AcDbVertex
100
AcDb2dVertex
10
871.416169510988
20
1211.394810198043
30
0.0
0
VERTEX
5
45b
100
AcDbEntity
8
0-01-a
6
CONTINUOUS
62
  2
100
AcDbVertex
100
AcDb2dVertex
10
871.416169510988
20
1229.894810198043
30
0.0
0
VERTEX
5
45c
100
AcDbEntity
8
0-01-a
6
CONTINUOUS
62
  2
100
AcDbVertex
100
AcDb2dVertex
10
277.416169510988
20
1229.894810198043
30
0.0
0
VERTEX
5
45d
100
AcDbEntity
8
0-01-a
6
CONTINUOUS
62
  2
100
AcDbVertex
100
AcDb2dVertex
10
277.416169510988
20
1211.394810198043
30
0.0
0
SEQEND
5
45e
100
AcDbEntity
8
0-01-a
0
LINE
5
45f
100
AcDbEntity
8
0-01-a
6
CONTINUOUS
62
4
100
AcDbLine
10
277.416169510988
20
1304.631249621081
30
0.0
11
871.416169510988
21
1304.631249621081
31
0.0
0
TEXT
5
460
100
AcDbEntity
8
0-01-a
62
4
100
AcDbText
10
558.966
20
1310.201
30
0.0
40
16.830
41
0.597
50
0.000
1
594
72
1
11
575.841
21
1308.331
31
0.0
100
AcDbText
73
1
0
POLYLINE
5
461
100
AcDbEntity
  8
0-01-a
6
CONTINUOUS
62
4
100
AcDb2dPolyline
66
1
10
0
20
0
70
1
40
2.000
41
2.000
0
VERTEX
5
462
100
AcDbEntity
  8
0-01-a
6
CONTINUOUS
62
4
100
AcDbVertex
100
AcDb2dVertex
10
276.416
20
1304.631
30
0.0
42
1.000
0
VERTEX
5
463
100
AcDbEntity
  8
0-01-a
6
CONTINUOUS
62
4
100
AcDbVertex
100
AcDb2dVertex
10
278.416
20
1304.631
30
0.0
42
1.000
0
SEQEND
5
464
100
AcDbEntity
  8
0-01-a
0
POLYLINE
5
465
100
AcDbEntity
  8
0-01-a
6
CONTINUOUS
62
4
100
AcDb2dPolyline
66
1
10
0
20
0
70
1
40
2.000
41
2.000
0
VERTEX
5
466
100
AcDbEntity
  8
0-01-a
6
CONTINUOUS
62
4
100
AcDbVertex
100
AcDb2dVertex
10
870.416
20
1304.631
30
0.0
42
1.000
0
VERTEX
5
467
100
AcDbEntity
  8
0-01-a
6
CONTINUOUS
62
4
100
AcDbVertex
100
AcDb2dVertex
10
872.416
20
1304.631
30
0.0
42
1.000
0
SEQEND
5
468
100
AcDbEntity
  8
0-01-a
0
LINE
5
469
100
AcDbEntity
8
0-01-a
6
CONTINUOUS
62
4
100
AcDbLine
10
277.416169510988
20
1304.631249621081
30
0.0
11
277.416169510988
21
1229.894810198043
31
0.0
0
LINE
5
46a
100
AcDbEntity
8
0-01-a
6
CONTINUOUS
62
4
100
AcDbLine
10
871.416169510988
20
1304.631249621081
30
0.0
11
871.416169510988
21
1229.894810198043
31
0.0
0
POLYLINE
5
46b
100
AcDbEntity
  8
0-01-a
6
CONTINUOUS
62
4
100
AcDb2dPolyline
66
1
10
0
20
0
70
1
40
2.000
41
2.000
0
VERTEX
5
46c
100
AcDbEntity
  8
0-01-a
6
CONTINUOUS
62
4
100
AcDbVertex
100
AcDb2dVertex
10
276.416
20
1148.929
30
0.0
42
1.000
0
VERTEX
5
46d
100
AcDbEntity
  8
0-01-a
6
CONTINUOUS
62
4
100
AcDbVertex
100
AcDb2dVertex
10
278.416
20
1148.929
30
0.0
42
1.000
0
SEQEND
5
46e
100
AcDbEntity
  8
0-01-a
0
LINE
5
46f
100
AcDbEntity
8
0-01-a
6
CONTINUOUS
62
4
100
AcDbLine
10
277.416169510988
20
1148.928645896250
30
0.0
11
277.416169510988
21
1074.192206473212
31
0.0
0
LINE
5
470
100
AcDbEntity
8
0-01-a
6
CONTINUOUS
62
4
100
AcDbLine
10
277.416169510988
20
1148.928645896250
30
0.0
11
871.416169510988
21
1148.928645896250
31
0.0
0
TEXT
5
471
100
AcDbEntity
8
0-01-a
62
4
100
AcDbText
10
558.966
20
1154.499
30
0.0
40
16.830
41
0.597
50
0.000
1
594
72
1
11
575.841
21
1152.629
31
0.0
100
AcDbText
73
1
0
POLYLINE
5
472
100
AcDbEntity
  8
0-01-a
6
CONTINUOUS
62
4
100
AcDb2dPolyline
66
1
10
0
20
0
70
1
40
2.000
41
2.000
0
VERTEX
5
473
100
AcDbEntity
  8
0-01-a
6
CONTINUOUS
62
4
100
AcDbVertex
100
AcDb2dVertex
10
276.416
20
1148.929
30
0.0
42
1.000
0
VERTEX
5
474
100
AcDbEntity
  8
0-01-a
6
CONTINUOUS
62
4
100
AcDbVertex
100
AcDb2dVertex
10
278.416
20
1148.929
30
0.0
42
1.000
0
SEQEND
5
475
100
AcDbEntity
  8
0-01-a
0
POLYLINE
5
476
100
AcDbEntity
  8
0-01-a
6
CONTINUOUS
62
4
100
AcDb2dPolyline
66
1
10
0
20
0
70
1
40
2.000
41
2.000
0
VERTEX
5
477
100
AcDbEntity
  8
0-01-a
6
CONTINUOUS
62
4
100
AcDbVertex
100
AcDb2dVertex
10
870.416
20
1148.929
30
0.0
42
1.000
0
VERTEX
5
478
100
AcDbEntity
  8
0-01-a
6
CONTINUOUS
62
4
100
AcDbVertex
100
AcDb2dVertex
10
872.416
20
1148.929
30
0.0
42
1.000
0
SEQEND
5
479
100
AcDbEntity
  8
0-01-a
0
LINE
5
47a
100
AcDbEntity
8
0-01-a
6
CONTINUOUS
62
4
100
AcDbLine
10
277.416169510988
20
1148.928645896250
30
0.0
11
277.416169510988
21
1074.192206473212
31
0.0
0
LINE
5
47b
100
AcDbEntity
8
0-01-a
6
CONTINUOUS
62
4
100
AcDbLine
10
871.416169510988
20
1148.928645896250
30
0.0
11
871.416169510988
21
1074.192206473212
31
0.0
0
LINE
5
47c
100
AcDbEntity
8
0-01-a
6
CONTINUOUS
62
4
100
AcDbLine
10
178.297100942426
20
1229.894810198043
30
0.0
11
178.297100942426
21
1211.394810198043
31
0.0
0
POLYLINE
5
47d
100
AcDbEntity
  8
0-01-a
6
CONTINUOUS
62
4
100
AcDb2dPolyline
66
1
10
0
20
0
70
1
40
2.000
41
2.000
0
VERTEX
5
47e
100
AcDbEntity
  8
0-01-a
6
CONTINUOUS
62
4
100
AcDbVertex
100
AcDb2dVertex
10
177.297
20
1229.895
30
0.0
42
1.000
0
VERTEX
5
47f
100
AcDbEntity
  8
0-01-a
6
CONTINUOUS
62
4
100
AcDbVertex
100
AcDb2dVertex
10
179.297
20
1229.895
30
0.0
42
1.000
0
SEQEND
5
480
100
AcDbEntity
  8
0-01-a
0
POLYLINE
5
481
100
AcDbEntity
  8
0-01-a
6
CONTINUOUS
62
4
100
AcDb2dPolyline
66
1
10
0
20
0
70
1
40
2.000
41
2.000
0
VERTEX
5
482
100
AcDbEntity
  8
0-01-a
6
CONTINUOUS
62
4
100
AcDbVertex
100
AcDb2dVertex
10
177.297
20
1211.395
30
0.0
42
1.000
0
VERTEX
5
483
100
AcDbEntity
  8
0-01-a
6
CONTINUOUS
62
4
100
AcDbVertex
100
AcDb2dVertex
10
179.297
20
1211.395
30
0.0
42
1.000
0
SEQEND
5
484
100
AcDbEntity
  8
0-01-a
0
LINE
5
485
100
AcDbEntity
8
0-01-a
6
CONTINUOUS
62
4
100
AcDbLine
10
178.297100942426
20
1229.894810198043
30
0.0
11
277.416169510988
21
1229.894810198043
31
0.0
0
LINE
5
486
100
AcDbEntity
8
0-01-a
6
CONTINUOUS
62
4
100
AcDbLine
10
178.297100942426
20
1211.394810198043
30
0.0
11
277.416169510988
21
1211.394810198043
31
0.0
0
LINE
5
487
100
AcDbEntity
8
0-01-a
6
CONTINUOUS
62
4
100
AcDbLine
10
178.297100942426
20
1074.192206473212
30
0.0
11
277.416169510988
21
1074.192206473212
31
0.0
0
MTEXT
5
488
100
AcDbEntity
8
0-01-a
62
7
100
AcDbMText
10
163.347
20
1222.695
30
0.0
40
15.895
41
0.000
71
5
72
1
1
\W1.093;（{\W0.787;18.5}）
7
STANDARD
11
0.00000
21
1.00000
31
0.0
0
LINE
5
489
100
AcDbEntity
8
0-01-a
6
CONTINUOUS
62
4
100
AcDbLine
10
1343.267044578265
20
1161.489828114450
30
0.0
11
1937.267044578265
21
1161.489828114450
31
0.0
0
TEXT
5
48a
100
AcDbEntity
8
0-01-a
62
4
100
AcDbText
10
1624.817
20
1167.060
30
0.0
40
16.830
41
0.597
50
0.000
1
594
72
1
11
1641.692
21
1165.190
31
0.0
100
AcDbText
73
1
0
POLYLINE
5
48b
100
AcDbEntity
  8
0-01-a
6
CONTINUOUS
62
4
100
AcDb2dPolyline
66
1
10
0
20
0
70
1
40
2.000
41
2.000
0
VERTEX
5
48c
100
AcDbEntity
  8
0-01-a
6
CONTINUOUS
62
4
100
AcDbVertex
100
AcDb2dVertex
10
1342.267
20
1161.490
30
0.0
42
1.000
0
VERTEX
5
48d
100
AcDbEntity
  8
0-01-a
6
CONTINUOUS
62
4
100
AcDbVertex
100
AcDb2dVertex
10
1344.267
20
1161.490
30
0.0
42
1.000
0
SEQEND
5
48e
100
AcDbEntity
  8
0-01-a
0
POLYLINE
5
48f
100
AcDbEntity
  8
0-01-a
6
CONTINUOUS
62
4
100
AcDb2dPolyline
66
1
10
0
20
0
70
1
40
2.000
41
2.000
0
VERTEX
5
490
100
AcDbEntity
  8
0-01-a
6
CONTINUOUS
62
4
100
AcDbVertex
100
AcDb2dVertex
10
1936.267
20
1161.490
30
0.0
42
1.000
0
VERTEX
5
491
100
AcDbEntity
  8
0-01-a
6
CONTINUOUS
62
4
100
AcDbVertex
100
AcDb2dVertex
10
1938.267
20
1161.490
30
0.0
42
1.000
0
SEQEND
5
492
100
AcDbEntity
  8
0-01-a
0
LINE
5
493
100
AcDbEntity
8
0-01-a
6
CONTINUOUS
62
4
100
AcDbLine
10
1343.267044578265
20
1161.489828114450
30
0.0
11
1343.267044578265
21
1074.192206473212
31
0.0
0
LINE
5
494
100
AcDbEntity
8
0-01-a
6
CONTINUOUS
62
4
100
AcDbLine
10
1937.267044578265
20
1161.489828114450
30
0.0
11
1937.267044578265
21
1074.192206473212
31
0.0
0
POLYLINE
5
495
100
AcDbEntity
8
0-01-a
6
CONTINUOUS
62
  2
100
AcDb2dPolyline
66
1
10
0.0
20
0.0
30
0.0
70
0
0
VERTEX
5
496
100
AcDbEntity
8
0-01-a
6
CONTINUOUS
62
  2
100
AcDbVertex
100
AcDb2dVertex
10
1617.623057365231
20
1151.265573261836
30
0.0
0
VERTEX
5
497
100
AcDbEntity
8
0-01-a
6
CONTINUOUS
62
  2
100
AcDbVertex
100
AcDb2dVertex
10
1660.174468965418
20
1151.265573261836
30
0.0
0
VERTEX
5
498
100
AcDbEntity
8
0-01-a
6
CONTINUOUS
62
  2
100
AcDbVertex
100
AcDb2dVertex
10
1660.174468965418
20
1127.055287351385
30
0.0
0
VERTEX
5
499
100
AcDbEntity
8
0-01-a
6
CONTINUOUS
62
  2
100
AcDbVertex
100
AcDb2dVertex
10
1617.623057365231
20
1127.055287351385
30
0.0
0
VERTEX
5
49a
100
AcDbEntity
8
0-01-a
6
CONTINUOUS
62
  2
100
AcDbVertex
100
AcDb2dVertex
10
1617.623057365231
20
1151.265573261836
30
0.0
0
SEQEND
5
49b
100
AcDbEntity
8
0-01-a
0
LINE
5
49c
100
AcDbEntity
8
0-01-a
6
CONTINUOUS
62
2
100
AcDbLine
10
1120.933266152978
20
1074.192206473212
30
0.0
11
1139.433266152978
21
1074.192206473212
31
0.0
0
LINE
5
49d
100
AcDbEntity
8
0-01-a
6
CONTINUOUS
62
4
100
AcDbLine
10
1021.814197584416
20
1074.192206473212
30
0.0
11
1120.933266152978
21
1074.192206473212
31
0.0
0
LINE
5
49e
100
AcDbEntity
8
0-01-a
6
CONTINUOUS
62
4
100
AcDbLine
10
1021.814197584416
20
370.192206473212
30
0.0
11
1120.933266152978
21
370.192206473212
31
0.0
0
POLYLINE
5
49f
100
AcDbEntity
8
0-01-a
6
CONTINUOUS
62
  2
100
AcDb2dPolyline
66
1
10
0.0
20
0.0
30
0.0
70
0
0
VERTEX
5
4a0
100
AcDbEntity
8
0-01-a
6
CONTINUOUS
62
  2
100
AcDbVertex
100
AcDb2dVertex
10
1120.933266152978
20
370.192206473212
30
0.0
0
VERTEX
5
4a1
100
AcDbEntity
8
0-01-a
6
CONTINUOUS
62
  2
100
AcDbVertex
100
AcDb2dVertex
10
1139.433266152978
20
370.192206473212
30
0.0
0
VERTEX
5
4a2
100
AcDbEntity
8
0-01-a
6
CONTINUOUS
62
  2
100
AcDbVertex
100
AcDb2dVertex
10
1139.433266152978
20
1074.192206473212
30
0.0
0
SEQEND
5
4a3
100
AcDbEntity
8
0-01-a
0
LINE
5
4a4
100
AcDbEntity
8
0-01-a
6
CONTINUOUS
62
2
100
AcDbLine
10
1120.933266152978
20
370.192206473212
30
0.0
11
1120.933266152978
21
1074.192206473212
31
0.0
0
LINE
5
4a5
100
AcDbEntity
8
0-01-a
6
CONTINUOUS
62
4
100
AcDbLine
10
178.297100942426
20
370.192206473212
30
0.0
11
277.416169510988
21
370.192206473212
31
0.0
0
LINE
5
4a6
100
AcDbEntity
8
0-01-a
6
CONTINUOUS
62
2
100
AcDbLine
10
1343.267044578265
20
1074.192206473212
30
0.0
11
1343.267044578265
21
370.192206473212
31
0.0
0
LINE
5
4a7
100
AcDbEntity
8
0-01-a
6
CONTINUOUS
62
2
100
AcDbLine
10
1937.267044578265
20
370.192206473212
30
0.0
11
1937.267044578265
21
1074.192206473212
31
0.0
0
LINE
5
4a8
100
AcDbEntity
8
0-01-a
6
CONTINUOUS
62
2
100
AcDbLine
10
1343.267044578265
20
370.192206473212
30
0.0
11
1937.267044578265
21
370.192206473212
31
0.0
0
LINE
5
4a9
100
AcDbEntity
8
0-01-a
6
CONTINUOUS
62
2
100
AcDbLine
10
277.416169510988
20
1074.192206473212
30
0.0
11
277.416169510988
21
370.192206473212
31
0.0
0
LINE
5
4aa
100
AcDbEntity
8
0-01-a
6
CONTINUOUS
62
2
100
AcDbLine
10
871.416169510988
20
370.192206473212
30
0.0
11
871.416169510988
21
1074.192206473212
31
0.0
0
LINE
5
4ab
100
AcDbEntity
8
0-01-a
6
CONTINUOUS
62
2
100
AcDbLine
10
277.416169510988
20
370.192206473212
30
0.0
11
871.416169510988
21
370.192206473212
31
0.0
0
LINE
5
4ac
100
AcDbEntity
8
0-01-a
6
CONTINUOUS
62
4
100
AcDbLine
10
178.297100942426
20
1074.192206473212
30
0.0
11
178.297100942426
21
370.192206473212
31
0.0
0
POLYLINE
5
4ad
100
AcDbEntity
  8
0-01-a
6
CONTINUOUS
62
4
100
AcDb2dPolyline
66
1
10
0
20
0
70
1
40
2.000
41
2.000
0
VERTEX
5
4ae
100
AcDbEntity
  8
0-01-a
6
CONTINUOUS
62
4
100
AcDbVertex
100
AcDb2dVertex
10
177.297
20
1074.192
30
0.0
42
1.000
0
VERTEX
5
4af
100
AcDbEntity
  8
0-01-a
6
CONTINUOUS
62
4
100
AcDbVertex
100
AcDb2dVertex
10
179.297
20
1074.192
30
0.0
42
1.000
0
SEQEND
5
4b0
100
AcDbEntity
  8
0-01-a
0
POLYLINE
5
4b1
100
AcDbEntity
  8
0-01-a
6
CONTINUOUS
62
4
100
AcDb2dPolyline
66
1
10
0
20
0
70
1
40
2.000
41
2.000
0
VERTEX
5
4b2
100
AcDbEntity
  8
0-01-a
6
CONTINUOUS
62
4
100
AcDbVertex
100
AcDb2dVertex
10
177.297
20
370.192
30
0.0
42
1.000
0
VERTEX
5
4b3
100
AcDbEntity
  8
0-01-a
6
CONTINUOUS
62
4
100
AcDbVertex
100
AcDb2dVertex
10
179.297
20
370.192
30
0.0
42
1.000
0
SEQEND
5
4b4
100
AcDbEntity
  8
0-01-a
0
TEXT
5
4b5
100
AcDbEntity
8
0-01-a
62
7
100
AcDbText
10
172.727
20
706.742
30
0.0
40
16.830
41
0.641
50
90.000
1
704
72
1
11
174.597
21
723.617
31
0.0
100
AcDbText
73
1
0
LINE
5
4b6
100
AcDbEntity
8
0-01-a
6
CONTINUOUS
62
4
100
AcDbLine
10
1021.814197584416
20
1074.192206473212
30
0.0
11
1021.814197584416
21
370.192206473212
31
0.0
0
POLYLINE
5
4b7
100
AcDbEntity
  8
0-01-a
6
CONTINUOUS
62
4
100
AcDb2dPolyline
66
1
10
0
20
0
70
1
40
2.000
41
2.000
0
VERTEX
5
4b8
100
AcDbEntity
  8
0-01-a
6
CONTINUOUS
62
4
100
AcDbVertex
100
AcDb2dVertex
10
1020.814
20
1074.192
30
0.0
42
1.000
0
VERTEX
5
4b9
100
AcDbEntity
  8
0-01-a
6
CONTINUOUS
62
4
100
AcDbVertex
100
AcDb2dVertex
10
1022.814
20
1074.192
30
0.0
42
1.000
0
SEQEND
5
4ba
100
AcDbEntity
  8
0-01-a
0
POLYLINE
5
4bb
100
AcDbEntity
  8
0-01-a
6
CONTINUOUS
62
4
100
AcDb2dPolyline
66
1
10
0
20
0
70
1
40
2.000
41
2.000
0
VERTEX
5
4bc
100
AcDbEntity
  8
0-01-a
6
CONTINUOUS
62
4
100
AcDbVertex
100
AcDb2dVertex
10
1020.814
20
370.192
30
0.0
42
1.000
0
VERTEX
5
4bd
100
AcDbEntity
  8
0-01-a
6
CONTINUOUS
62
4
100
AcDbVertex
100
AcDb2dVertex
10
1022.814
20
370.192
30
0.0
42
1.000
0
SEQEND
5
4be
100
AcDbEntity
  8
0-01-a
0
TEXT
5
4bf
100
AcDbEntity
8
0-01-a
62
7
100
AcDbText
10
1016.244
20
706.742
30
0.0
40
16.830
41
0.641
50
90.000
1
704
72
1
11
1018.114
21
723.617
31
0.0
100
AcDbText
73
1
0
LINE
5
4c0
100
AcDbEntity
8
F-0
6
CONTINUOUS
62
2
100
AcDbLine
10
524.416169510988
20
720.060861979619
30
0.0
11
543.057464700738
21
725.055781971583
31
0.0
0
LINE
5
4c1
100
AcDbEntity
8
F-0
6
CONTINUOUS
62
2
100
AcDbLine
10
524.416169510988
20
720.060861979619
30
0.0
11
624.416169510988
21
720.060861979619
31
0.0
0
LINE
5
4c2
100
AcDbEntity
8
F-0
6
CONTINUOUS
62
2
100
AcDbLine
10
605.774874321238
20
715.065941987655
30
0.0
11
624.416169510988
21
720.060861979619
31
0.0
0
TEXT
5
4c3
100
AcDbEntity
8
F-0
62
7
100
AcDbText
10
531.466
20
731.656
30
0.0
40
16.830
41
0.963
50
0.000
1
ＨＬ方向
72
1
11
576.466
21
729.786
31
0.0
100
AcDbText
73
1
0
CIRCLE
5
4c4
100
AcDbEntity
8
0-01-a
6
CONTINUOUS
62
2
100
AcDbCircle
10
374.416169510988
20
1024.192206473212
30
0.0
40
2.250000000000
0
CIRCLE
5
4c5
100
AcDbEntity
8
0-01-a
6
CONTINUOUS
62
2
100
AcDbCircle
10
774.416169510988
20
1024.192206473212
30
0.0
40
2.250000000000
0
LINE
5
4c6
100
AcDbEntity
8
0-01-a
6
CONTINUOUS
62
4
100
AcDbLine
10
277.416169510988
20
1111.297753907975
30
0.0
11
374.416169510988
21
1111.297753907975
31
0.0
0
POLYLINE
5
4c7
100
AcDbEntity
  8
0-01-a
6
CONTINUOUS
62
4
100
AcDb2dPolyline
66
1
10
0
20
0
70
1
40
2.000
41
2.000
0
VERTEX
5
4c8
100
AcDbEntity
  8
0-01-a
6
CONTINUOUS
62
4
100
AcDbVertex
100
AcDb2dVertex
10
276.416
20
1111.298
30
0.0
42
1.000
0
VERTEX
5
4c9
100
AcDbEntity
  8
0-01-a
6
CONTINUOUS
62
4
100
AcDbVertex
100
AcDb2dVertex
10
278.416
20
1111.298
30
0.0
42
1.000
0
SEQEND
5
4ca
100
AcDbEntity
  8
0-01-a
0
POLYLINE
5
4cb
100
AcDbEntity
  8
0-01-a
6
CONTINUOUS
62
4
100
AcDb2dPolyline
66
1
10
0
20
0
70
1
40
2.000
41
2.000
0
VERTEX
5
4cc
100
AcDbEntity
  8
0-01-a
6
CONTINUOUS
62
4
100
AcDbVertex
100
AcDb2dVertex
10
373.416
20
1111.298
30
0.0
42
1.000
0
VERTEX
5
4cd
100
AcDbEntity
  8
0-01-a
6
CONTINUOUS
62
4
100
AcDbVertex
100
AcDb2dVertex
10
375.416
20
1111.298
30
0.0
42
1.000
0
SEQEND
5
4ce
100
AcDbEntity
  8
0-01-a
0
LINE
5
4cf
100
AcDbEntity
8
0-01-a
6
CONTINUOUS
62
4
100
AcDbLine
10
277.416169510988
20
1111.297753907975
30
0.0
11
277.416169510988
21
1024.192206473212
31
0.0
0
TEXT
5
4d0
100
AcDbEntity
8
0-01-a
62
7
100
AcDbText
10
316.091
20
1116.868
30
0.0
40
16.830
41
0.613
50
0.000
1
97
72
1
11
327.341
21
1114.998
31
0.0
100
AcDbText
73
1
0
POLYLINE
5
4d1
100
AcDbEntity
  8
0-01-a
6
CONTINUOUS
62
4
100
AcDb2dPolyline
66
1
10
0
20
0
70
1
40
2.000
41
2.000
0
VERTEX
5
4d2
100
AcDbEntity
  8
0-01-a
6
CONTINUOUS
62
4
100
AcDbVertex
100
AcDb2dVertex
10
773.416
20
1111.298
30
0.0
42
1.000
0
VERTEX
5
4d3
100
AcDbEntity
  8
0-01-a
6
CONTINUOUS
62
4
100
AcDbVertex
100
AcDb2dVertex
10
775.416
20
1111.298
30
0.0
42
1.000
0
SEQEND
5
4d4
100
AcDbEntity
  8
0-01-a
0
TEXT
5
4d5
100
AcDbEntity
8
0-01-a
62
7
100
AcDbText
10
558.966
20
1116.868
30
0.0
40
16.830
41
0.672
50
0.000
1
400
72
1
11
575.841
21
1114.998
31
0.0
100
AcDbText
73
1
0
LINE
5
4d6
100
AcDbEntity
8
0-01-a
6
CONTINUOUS
62
4
100
AcDbLine
10
774.416169510988
20
1111.297753907975
30
0.0
11
871.416169510988
21
1111.297753907975
31
0.0
0
TEXT
5
4d7
100
AcDbEntity
8
0-01-a
62
4
100
AcDbText
10
813.091
20
1116.868
30
0.0
40
16.830
41
0.613
50
0.000
1
97
72
1
11
824.341
21
1114.998
31
0.0
100
AcDbText
73
1
0
POLYLINE
5
4d8
100
AcDbEntity
  8
0-01-a
6
CONTINUOUS
62
4
100
AcDb2dPolyline
66
1
10
0
20
0
70
1
40
2.000
41
2.000
0
VERTEX
5
4d9
100
AcDbEntity
  8
0-01-a
6
CONTINUOUS
62
4
100
AcDbVertex
100
AcDb2dVertex
10
870.416
20
1111.298
30
0.0
42
1.000
0
VERTEX
5
4da
100
AcDbEntity
  8
0-01-a
6
CONTINUOUS
62
4
100
AcDbVertex
100
AcDb2dVertex
10
872.416
20
1111.298
30
0.0
42
1.000
0
SEQEND
5
4db
100
AcDbEntity
  8
0-01-a
0
LINE
5
4dc
100
AcDbEntity
8
0-01-a
6
CONTINUOUS
62
4
100
AcDbLine
10
871.416169510988
20
1111.297753907975
30
0.0
11
871.416169510988
21
1024.192206473212
31
0.0
0
POLYLINE
5
4dd
100
AcDbEntity
  8
0-01-a
6
CONTINUOUS
62
4
100
AcDb2dPolyline
66
1
10
0
20
0
70
1
40
2.000
41
2.000
0
VERTEX
5
4de
100
AcDbEntity
  8
0-01-a
6
CONTINUOUS
62
4
100
AcDbVertex
100
AcDb2dVertex
10
921.649
20
1074.192
30
0.0
42
1.000
0
VERTEX
5
4df
100
AcDbEntity
  8
0-01-a
6
CONTINUOUS
62
4
100
AcDbVertex
100
AcDb2dVertex
10
923.649
20
1074.192
30
0.0
42
1.000
0
SEQEND
5
4e0
100
AcDbEntity
  8
0-01-a
0
POLYLINE
5
4e1
100
AcDbEntity
  8
0-01-a
6
CONTINUOUS
62
4
100
AcDb2dPolyline
66
1
10
0
20
0
70
1
40
2.000
41
2.000
0
VERTEX
5
4e2
100
AcDbEntity
  8
0-01-a
6
CONTINUOUS
62
4
100
AcDbVertex
100
AcDb2dVertex
10
921.649
20
1024.192
30
0.0
42
1.000
0
VERTEX
5
4e3
100
AcDbEntity
  8
0-01-a
6
CONTINUOUS
62
4
100
AcDbVertex
100
AcDb2dVertex
10
923.649
20
1024.192
30
0.0
42
1.000
0
SEQEND
5
4e4
100
AcDbEntity
  8
0-01-a
0
LINE
5
4e5
100
AcDbEntity
8
0-01-a
6
CONTINUOUS
62
4
100
AcDbLine
10
922.649462758325
20
1074.192206473212
30
0.0
11
871.416169510988
21
1074.192206473212
31
0.0
0
TEXT
5
4e6
100
AcDbEntity
8
0-01-a
62
7
100
AcDbText
10
917.079
20
1039.367
30
0.0
40
16.830
41
0.626
50
90.000
1
50
72
1
11
918.949
21
1050.617
31
0.0
100
AcDbText
73
1
0
LINE
5
4e7
100
AcDbEntity
8
0-01-a
6
CONTINUOUS
62
7
100
AcDbLine
10
395.000126995017
20
953.220255439453
30
0.0
11
417.850057961669
21
953.220255439453
31
0.0
0
LINE
5
4e8
100
AcDbEntity
8
0-01-a
6
CONTINUOUS
62
7
100
AcDbLine
10
376.869353855422
20
1020.885221976925
30
0.0
11
395.000126995017
21
953.220255439453
31
0.0
0
MTEXT
5
4e9
100
AcDbEntity
8
0-01-a
62
7
100
AcDbMText
10
426.228
20
944.420
30
0.0
40
15.895
41
0.000
71
7
72
1
1
\W1.093;{\W0.787;2-}φ{\W0.787;4.5}
7
STANDARD
11
1.00000
21
0.00000
31
0.0
0
POLYLINE
5
4ea
100
AcDbEntity
  8
0-01-a
6
CONTINUOUS
62
4
100
AcDb2dPolyline
66
1
10
0
20
0
70
1
40
2.000
41
2.000
0
VERTEX
5
4eb
100
AcDbEntity
  8
0-01-a
6
CONTINUOUS
62
4
100
AcDbVertex
100
AcDb2dVertex
10
1899.767
20
1089.357
30
0.0
42
1.000
0
VERTEX
5
4ec
100
AcDbEntity
  8
0-01-a
6
CONTINUOUS
62
4
100
AcDbVertex
100
AcDb2dVertex
10
1901.767
20
1089.357
30
0.0
42
1.000
0
SEQEND
5
4ed
100
AcDbEntity
  8
0-01-a
0
LINE
5
4ee
100
AcDbEntity
8
0-01-a
6
CONTINUOUS
62
4
100
AcDbLine
10
1379.767044578266
20
1125.423644442667
30
0.0
11
1379.767044578266
21
1089.357460770883
31
0.0
0
LINE
5
4ef
100
AcDbEntity
8
0-01-a
6
CONTINUOUS
62
4
100
AcDbLine
10
1900.767044578265
20
1089.357460770883
30
0.0
11
1640.267044578266
21
1089.357460770883
31
0.0
0
POLYLINE
5
4f0
100
AcDbEntity
  8
0-01-a
6
CONTINUOUS
62
4
100
AcDb2dPolyline
66
1
10
0
20
0
70
1
40
2.000
41
2.000
0
VERTEX
5
4f1
100
AcDbEntity
  8
0-01-a
6
CONTINUOUS
62
4
100
AcDbVertex
100
AcDb2dVertex
10
1899.767
20
1089.357
30
0.0
42
1.000
0
VERTEX
5
4f2
100
AcDbEntity
  8
0-01-a
6
CONTINUOUS
62
4
100
AcDbVertex
100
AcDb2dVertex
10
1901.767
20
1089.357
30
0.0
42
1.000
0
SEQEND
5
4f3
100
AcDbEntity
  8
0-01-a
0
POLYLINE
5
4f4
100
AcDbEntity
  8
0-01-a
6
CONTINUOUS
62
4
100
AcDb2dPolyline
66
1
10
0
20
0
70
1
40
2.000
41
2.000
0
VERTEX
5
4f5
100
AcDbEntity
  8
0-01-a
6
CONTINUOUS
62
4
100
AcDbVertex
100
AcDb2dVertex
10
1639.267
20
1089.357
30
0.0
42
1.000
0
VERTEX
5
4f6
100
AcDbEntity
  8
0-01-a
6
CONTINUOUS
62
4
100
AcDbVertex
100
AcDb2dVertex
10
1641.267
20
1089.357
30
0.0
42
1.000
0
SEQEND
5
4f7
100
AcDbEntity
  8
0-01-a
0
TEXT
5
4f8
100
AcDbEntity
8
0-01-a
62
7
100
AcDbText
10
1743.817
20
1094.927
30
0.0
40
16.830
41
0.669
50
0.000
1
260.5
72
1
11
1771.942
21
1093.057
31
0.0
100
AcDbText
73
1
0
POLYLINE
5
4f9
100
AcDbEntity
  8
0-01-a
6
CONTINUOUS
62
4
100
AcDb2dPolyline
66
1
10
0
20
0
70
1
40
2.000
41
2.000
0
VERTEX
5
4fa
100
AcDbEntity
  8
0-01-a
6
CONTINUOUS
62
4
100
AcDbVertex
100
AcDb2dVertex
10
1378.767
20
1089.357
30
0.0
42
1.000
0
VERTEX
5
4fb
100
AcDbEntity
  8
0-01-a
6
CONTINUOUS
62
4
100
AcDbVertex
100
AcDb2dVertex
10
1380.767
20
1089.357
30
0.0
42
1.000
0
SEQEND
5
4fc
100
AcDbEntity
  8
0-01-a
0
TEXT
5
4fd
100
AcDbEntity
8
0-01-a
62
7
100
AcDbText
10
1483.317
20
1094.927
30
0.0
40
16.830
41
0.669
50
0.000
1
260.5
72
1
11
1511.442
21
1093.057
31
0.0
100
AcDbText
73
1
0
LINE
5
4fe
100
AcDbEntity
8
0-01-a
6
CONTINUOUS
62
4
100
AcDbLine
10
1379.767044578266
20
1125.423644442667
30
0.0
11
1900.767044578265
21
1125.423644442667
31
0.0
0
POLYLINE
5
4ff
100
AcDbEntity
  8
0-01-a
6
CONTINUOUS
62
4
100
AcDb2dPolyline
66
1
10
0
20
0
70
1
40
2.000
41
2.000
0
VERTEX
5
500
100
AcDbEntity
  8
0-01-a
6
CONTINUOUS
62
4
100
AcDbVertex
100
AcDb2dVertex
10
1378.767
20
1125.424
30
0.0
42
1.000
0
VERTEX
5
501
100
AcDbEntity
  8
0-01-a
6
CONTINUOUS
62
4
100
AcDbVertex
100
AcDb2dVertex
10
1380.767
20
1125.424
30
0.0
42
1.000
0
SEQEND
5
502
100
AcDbEntity
  8
0-01-a
0
POLYLINE
5
503
100
AcDbEntity
  8
0-01-a
6
CONTINUOUS
62
4
100
AcDb2dPolyline
66
1
10
0
20
0
70
1
40
2.000
41
2.000
0
VERTEX
5
504
100
AcDbEntity
  8
0-01-a
6
CONTINUOUS
62
4
100
AcDbVertex
100
AcDb2dVertex
10
1899.767
20
1125.424
30
0.0
42
1.000
0
VERTEX
5
505
100
AcDbEntity
  8
0-01-a
6
CONTINUOUS
62
4
100
AcDbVertex
100
AcDb2dVertex
10
1901.767
20
1125.424
30
0.0
42
1.000
0
SEQEND
5
506
100
AcDbEntity
  8
0-01-a
0
TEXT
5
507
100
AcDbEntity
8
0-01-a
62
7
100
AcDbText
10
1624.817
20
1130.994
30
0.0
40
16.830
41
0.633
50
0.000
1
521
72
1
11
1641.692
21
1129.124
31
0.0
100
AcDbText
73
1
0
CIRCLE
5
508
100
AcDbEntity
8
0-01-a
6
CONTINUOUS
62
2
100
AcDbCircle
10
1357.267044578265
20
742.192206473212
30
0.0
40
3.000000000000
0
CIRCLE
5
509
100
AcDbEntity
8
0-01-a
6
CONTINUOUS
62
2
100
AcDbCircle
10
1923.267044578265
20
742.192206473212
30
0.0
40
3.000000000000
0
CIRCLE
5
50a
100
AcDbEntity
8
0-01-a
6
CONTINUOUS
62
2
100
AcDbCircle
10
1389.267044578265
20
450.192206473212
30
0.0
40
1.500000000000
0
CIRCLE
5
50b
100
AcDbEntity
8
0-01-a
6
CONTINUOUS
62
2
100
AcDbCircle
10
1389.267044578265
20
441.692206473212
30
0.0
40
1.500000000000
0
CIRCLE
5
50c
100
AcDbEntity
8
0-01-a
6
CONTINUOUS
62
2
100
AcDbCircle
10
1891.267044578266
20
450.192206473212
30
0.0
40
1.500000000000
0
CIRCLE
5
50d
100
AcDbEntity
8
0-01-a
6
CONTINUOUS
62
2
100
AcDbCircle
10
1891.267044578266
20
441.692206473212
30
0.0
40
1.500000000000
0
CIRCLE
5
50e
100
AcDbEntity
8
0-01-a
6
CONTINUOUS
62
2
100
AcDbCircle
10
1379.767044578266
20
1064.192206473212
30
0.0
40
2.250000000000
0
CIRCLE
5
50f
100
AcDbEntity
8
0-01-a
6
CONTINUOUS
62
2
100
AcDbCircle
10
1900.767044578265
20
1064.192206473212
30
0.0
40
2.250000000000
0
CIRCLE
5
510
100
AcDbEntity
8
0-01-a
6
CONTINUOUS
62
2
100
AcDbCircle
10
1357.267044578265
20
989.192206473212
30
0.0
40
3.000000000000
0
CIRCLE
5
511
100
AcDbEntity
8
0-01-a
6
CONTINUOUS
62
2
100
AcDbCircle
10
1923.267044578265
20
989.192206473212
30
0.0
40
3.000000000000
0
LINE
5
512
100
AcDbEntity
8
0-01-a
6
CONTINUOUS
62
4
100
AcDbLine
10
1302.821470930828
20
1074.192206473212
30
0.0
11
1302.821470930828
21
1064.192206473212
31
0.0
0
POLYLINE
5
513
100
AcDbEntity
  8
0-01-a
6
CONTINUOUS
62
4
100
AcDb2dPolyline
66
1
10
0
20
0
70
1
40
2.000
41
2.000
0
VERTEX
5
514
100
AcDbEntity
  8
0-01-a
6
CONTINUOUS
62
4
100
AcDbVertex
100
AcDb2dVertex
10
1301.821
20
1074.192
30
0.0
42
1.000
0
VERTEX
5
515
100
AcDbEntity
  8
0-01-a
6
CONTINUOUS
62
4
100
AcDbVertex
100
AcDb2dVertex
10
1303.821
20
1074.192
30
0.0
42
1.000
0
SEQEND
5
516
100
AcDbEntity
  8
0-01-a
0
POLYLINE
5
517
100
AcDbEntity
  8
0-01-a
6
CONTINUOUS
62
4
100
AcDb2dPolyline
66
1
10
0
20
0
70
1
40
2.000
41
2.000
0
VERTEX
5
518
100
AcDbEntity
  8
0-01-a
6
CONTINUOUS
62
4
100
AcDbVertex
100
AcDb2dVertex
10
1301.821
20
1064.192
30
0.0
42
1.000
0
VERTEX
5
519
100
AcDbEntity
  8
0-01-a
6
CONTINUOUS
62
4
100
AcDbVertex
100
AcDb2dVertex
10
1303.821
20
1064.192
30
0.0
42
1.000
0
SEQEND
5
51a
100
AcDbEntity
  8
0-01-a
0
LINE
5
51b
100
AcDbEntity
8
0-01-a
6
CONTINUOUS
62
4
100
AcDbLine
10
1302.821470930828
20
1074.192206473212
30
0.0
11
1357.267044578265
21
1074.192206473212
31
0.0
0
TEXT
5
51c
100
AcDbEntity
8
0-01-a
62
7
100
AcDbText
10
1297.251
20
1059.367
30
0.0
40
16.830
41
0.816
50
90.000
1
10
72
1
11
1299.121
21
1070.617
31
0.0
100
AcDbText
73
1
0
POLYLINE
5
51d
100
AcDbEntity
  8
0-01-a
6
CONTINUOUS
62
4
100
AcDb2dPolyline
66
1
10
0
20
0
70
1
40
2.000
41
2.000
0
VERTEX
5
51e
100
AcDbEntity
  8
0-01-a
6
CONTINUOUS
62
4
100
AcDbVertex
100
AcDb2dVertex
10
1301.821
20
989.192
30
0.0
42
1.000
0
VERTEX
5
51f
100
AcDbEntity
  8
0-01-a
6
CONTINUOUS
62
4
100
AcDbVertex
100
AcDb2dVertex
10
1303.821
20
989.192
30
0.0
42
1.000
0
SEQEND
5
520
100
AcDbEntity
  8
0-01-a
0
TEXT
5
521
100
AcDbEntity
8
0-01-a
62
7
100
AcDbText
10
1297.251
20
1016.867
30
0.0
40
16.830
41
0.586
50
90.000
1
75
72
1
11
1299.121
21
1028.117
31
0.0
100
AcDbText
73
1
0
LINE
5
522
100
AcDbEntity
8
0-01-a
6
CONTINUOUS
62
4
100
AcDbLine
10
1302.821470930828
20
989.192206473212
30
0.0
11
1302.821470930828
21
742.192206473212
31
0.0
0
POLYLINE
5
523
100
AcDbEntity
  8
0-01-a
6
CONTINUOUS
62
4
100
AcDb2dPolyline
66
1
10
0
20
0
70
1
40
2.000
41
2.000
0
VERTEX
5
524
100
AcDbEntity
  8
0-01-a
6
CONTINUOUS
62
4
100
AcDbVertex
100
AcDb2dVertex
10
1301.821
20
742.192
30
0.0
42
1.000
0
VERTEX
5
525
100
AcDbEntity
  8
0-01-a
6
CONTINUOUS
62
4
100
AcDbVertex
100
AcDb2dVertex
10
1303.821
20
742.192
30
0.0
42
1.000
0
SEQEND
5
526
100
AcDbEntity
  8
0-01-a
0
TEXT
5
527
100
AcDbEntity
8
0-01-a
62
7
100
AcDbText
10
1297.251
20
850.242
30
0.0
40
16.830
41
0.578
50
90.000
1
247
72
1
11
1299.121
21
867.117
31
0.0
100
AcDbText
73
1
0
POLYLINE
5
528
100
AcDbEntity
  8
0-01-a
6
CONTINUOUS
62
4
100
AcDb2dPolyline
66
1
10
0
20
0
70
1
40
2.000
41
2.000
0
VERTEX
5
529
100
AcDbEntity
  8
0-01-a
6
CONTINUOUS
62
4
100
AcDbVertex
100
AcDb2dVertex
10
1301.821
20
450.192
30
0.0
42
1.000
0
VERTEX
5
52a
100
AcDbEntity
  8
0-01-a
6
CONTINUOUS
62
4
100
AcDbVertex
100
AcDb2dVertex
10
1303.821
20
450.192
30
0.0
42
1.000
0
SEQEND
5
52b
100
AcDbEntity
  8
0-01-a
0
TEXT
5
52c
100
AcDbEntity
8
0-01-a
62
7
100
AcDbText
10
1297.251
20
580.742
30
0.0
40
16.830
41
0.547
50
90.000
1
292
72
1
11
1299.121
21
597.617
31
0.0
100
AcDbText
73
1
0
POLYLINE
5
52d
100
AcDbEntity
  8
0-01-a
6
CONTINUOUS
62
4
100
AcDb2dPolyline
66
1
10
0
20
0
70
1
40
2.000
41
2.000
0
VERTEX
5
52e
100
AcDbEntity
  8
0-01-a
6
CONTINUOUS
62
4
100
AcDbVertex
100
AcDb2dVertex
10
1301.821
20
441.692
30
0.0
42
1.000
0
VERTEX
5
52f
100
AcDbEntity
  8
0-01-a
6
CONTINUOUS
62
4
100
AcDbVertex
100
AcDb2dVertex
10
1303.821
20
441.692
30
0.0
42
1.000
0
SEQEND
5
530
100
AcDbEntity
  8
0-01-a
0
TEXT
5
531
100
AcDbEntity
8
0-01-a
62
7
100
AcDbText
10
1297.251
20
430.492
30
0.0
40
16.830
41
0.719
50
90.000
1
8.5
72
1
11
1299.121
21
447.367
31
0.0
100
AcDbText
73
1
0
LINE
5
532
100
AcDbEntity
8
0-01-a
6
CONTINUOUS
62
4
100
AcDbLine
10
1389.267044578265
20
489.916940912173
30
0.0
11
1640.267044578266
21
489.916940912173
31
0.0
0
POLYLINE
5
533
100
AcDbEntity
  8
0-01-a
6
CONTINUOUS
62
4
100
AcDb2dPolyline
66
1
10
0
20
0
70
1
40
2.000
41
2.000
0
VERTEX
5
534
100
AcDbEntity
  8
0-01-a
6
CONTINUOUS
62
4
100
AcDbVertex
100
AcDb2dVertex
10
1388.267
20
489.917
30
0.0
42
1.000
0
VERTEX
5
535
100
AcDbEntity
  8
0-01-a
6
CONTINUOUS
62
4
100
AcDbVertex
100
AcDb2dVertex
10
1390.267
20
489.917
30
0.0
42
1.000
0
SEQEND
5
536
100
AcDbEntity
  8
0-01-a
0
POLYLINE
5
537
100
AcDbEntity
  8
0-01-a
6
CONTINUOUS
62
4
100
AcDb2dPolyline
66
1
10
0
20
0
70
1
40
2.000
41
2.000
0
VERTEX
5
538
100
AcDbEntity
  8
0-01-a
6
CONTINUOUS
62
4
100
AcDbVertex
100
AcDb2dVertex
10
1639.267
20
489.917
30
0.0
42
1.000
0
VERTEX
5
539
100
AcDbEntity
  8
0-01-a
6
CONTINUOUS
62
4
100
AcDbVertex
100
AcDb2dVertex
10
1641.267
20
489.917
30
0.0
42
1.000
0
SEQEND
5
53a
100
AcDbEntity
  8
0-01-a
0
LINE
5
53b
100
AcDbEntity
8
0-01-a
6
CONTINUOUS
62
4
100
AcDbLine
10
1640.267044578266
20
489.916940912173
30
0.0
11
1640.267044578266
21
450.192206473212
31
0.0
0
TEXT
5
53c
100
AcDbEntity
8
0-01-a
62
7
100
AcDbText
10
1499.317
20
495.487
30
0.0
40
16.830
41
0.633
50
0.000
1
251
72
1
11
1516.192
21
493.617
31
0.0
100
AcDbText
73
1
0
LINE
5
53d
100
AcDbEntity
8
0-01-a
6
CONTINUOUS
62
4
100
AcDbLine
10
1640.267044578266
20
489.916940912173
30
0.0
11
1891.267044578266
21
489.916940912173
31
0.0
0
POLYLINE
5
53e
100
AcDbEntity
  8
0-01-a
6
CONTINUOUS
62
4
100
AcDb2dPolyline
66
1
10
0
20
0
70
1
40
2.000
41
2.000
0
VERTEX
5
53f
100
AcDbEntity
  8
0-01-a
6
CONTINUOUS
62
4
100
AcDbVertex
100
AcDb2dVertex
10
1890.267
20
489.917
30
0.0
42
1.000
0
VERTEX
5
540
100
AcDbEntity
  8
0-01-a
6
CONTINUOUS
62
4
100
AcDbVertex
100
AcDb2dVertex
10
1892.267
20
489.917
30
0.0
42
1.000
0
SEQEND
5
541
100
AcDbEntity
  8
0-01-a
0
TEXT
5
542
100
AcDbEntity
8
0-01-a
62
7
100
AcDbText
10
1750.317
20
495.487
30
0.0
40
16.830
41
0.633
50
0.000
1
251
72
1
11
1767.192
21
493.617
31
0.0
100
AcDbText
73
1
0
LINE
5
543
100
AcDbEntity
8
0-01-a
6
CONTINUOUS
62
4
100
AcDbLine
10
1891.267044578266
20
520.789465112434
30
0.0
11
1389.267044578265
21
520.789465112434
31
0.0
0
POLYLINE
5
544
100
AcDbEntity
  8
0-01-a
6
CONTINUOUS
62
4
100
AcDb2dPolyline
66
1
10
0
20
0
70
1
40
2.000
41
2.000
0
VERTEX
5
545
100
AcDbEntity
  8
0-01-a
6
CONTINUOUS
62
4
100
AcDbVertex
100
AcDb2dVertex
10
1890.267
20
520.789
30
0.0
42
1.000
0
VERTEX
5
546
100
AcDbEntity
  8
0-01-a
6
CONTINUOUS
62
4
100
AcDbVertex
100
AcDb2dVertex
10
1892.267
20
520.789
30
0.0
42
1.000
0
SEQEND
5
547
100
AcDbEntity
  8
0-01-a
0
POLYLINE
5
548
100
AcDbEntity
  8
0-01-a
6
CONTINUOUS
62
4
100
AcDb2dPolyline
66
1
10
0
20
0
70
1
40
2.000
41
2.000
0
VERTEX
5
549
100
AcDbEntity
  8
0-01-a
6
CONTINUOUS
62
4
100
AcDbVertex
100
AcDb2dVertex
10
1388.267
20
520.789
30
0.0
42
1.000
0
VERTEX
5
54a
100
AcDbEntity
  8
0-01-a
6
CONTINUOUS
62
4
100
AcDbVertex
100
AcDb2dVertex
10
1390.267
20
520.789
30
0.0
42
1.000
0
SEQEND
5
54b
100
AcDbEntity
  8
0-01-a
0
TEXT
5
54c
100
AcDbEntity
8
0-01-a
62
7
100
AcDbText
10
1624.817
20
526.359
30
0.0
40
16.830
41
0.586
50
0.000
1
502
72
1
11
1641.692
21
524.489
31
0.0
100
AcDbText
73
1
0
POLYLINE
5
54d
100
AcDbEntity
  8
0-01-a
6
CONTINUOUS
62
4
100
AcDb2dPolyline
66
1
10
0
20
0
70
1
40
2.000
41
2.000
0
VERTEX
5
54e
100
AcDbEntity
  8
0-01-a
6
CONTINUOUS
62
4
100
AcDbVertex
100
AcDb2dVertex
10
1639.267
20
783.726
30
0.0
42
1.000
0
VERTEX
5
54f
100
AcDbEntity
  8
0-01-a
6
CONTINUOUS
62
4
100
AcDbVertex
100
AcDb2dVertex
10
1641.267
20
783.726
30
0.0
42
1.000
0
SEQEND
5
550
100
AcDbEntity
  8
0-01-a
0
POLYLINE
5
551
100
AcDbEntity
  8
0-01-a
6
CONTINUOUS
62
4
100
AcDb2dPolyline
66
1
10
0
20
0
70
1
40
2.000
41
2.000
0
VERTEX
5
552
100
AcDbEntity
  8
0-01-a
6
CONTINUOUS
62
4
100
AcDbVertex
100
AcDb2dVertex
10
1356.267
20
783.726
30
0.0
42
1.000
0
VERTEX
5
553
100
AcDbEntity
  8
0-01-a
6
CONTINUOUS
62
4
100
AcDbVertex
100
AcDb2dVertex
10
1358.267
20
783.726
30
0.0
42
1.000
0
SEQEND
5
554
100
AcDbEntity
  8
0-01-a
0
LINE
5
555
100
AcDbEntity
8
0-01-a
6
CONTINUOUS
62
4
100
AcDbLine
10
1640.267044578266
20
783.725559916201
30
0.0
11
1640.267044578266
21
742.192206473212
31
0.0
0
TEXT
5
556
100
AcDbEntity
8
0-01-a
62
7
100
AcDbText
10
1483.317
20
789.296
30
0.0
40
16.830
41
0.550
50
0.000
1
283
72
1
11
1500.192
21
787.426
31
0.0
100
AcDbText
73
1
0
POLYLINE
5
557
100
AcDbEntity
  8
0-01-a
6
CONTINUOUS
62
4
100
AcDb2dPolyline
66
1
10
0
20
0
70
1
40
2.000
41
2.000
0
VERTEX
5
558
100
AcDbEntity
  8
0-01-a
6
CONTINUOUS
62
4
100
AcDbVertex
100
AcDb2dVertex
10
1922.267
20
783.726
30
0.0
42
1.000
0
VERTEX
5
559
100
AcDbEntity
  8
0-01-a
6
CONTINUOUS
62
4
100
AcDbVertex
100
AcDb2dVertex
10
1924.267
20
783.726
30
0.0
42
1.000
0
SEQEND
5
55a
100
AcDbEntity
  8
0-01-a
0
TEXT
5
55b
100
AcDbEntity
8
0-01-a
62
7
100
AcDbText
10
1766.317
20
789.296
30
0.0
40
16.830
41
0.550
50
0.000
1
283
72
1
11
1783.192
21
787.426
31
0.0
100
AcDbText
73
1
0
LINE
5
55c
100
AcDbEntity
8
0-01-a
6
CONTINUOUS
62
4
100
AcDbLine
10
1357.267044578265
20
816.607676216084
30
0.0
11
1923.267044578265
21
816.607676216084
31
0.0
0
TEXT
5
55d
100
AcDbEntity
8
0-01-a
62
4
100
AcDbText
10
1624.817
20
822.178
30
0.0
40
16.830
41
0.567
50
0.000
1
566
72
1
11
1641.692
21
820.308
31
0.0
100
AcDbText
73
1
0
POLYLINE
5
55e
100
AcDbEntity
  8
0-01-a
6
CONTINUOUS
62
4
100
AcDb2dPolyline
66
1
10
0
20
0
70
1
40
2.000
41
2.000
0
VERTEX
5
55f
100
AcDbEntity
  8
0-01-a
6
CONTINUOUS
62
4
100
AcDbVertex
100
AcDb2dVertex
10
1356.267
20
816.608
30
0.0
42
1.000
0
VERTEX
5
560
100
AcDbEntity
  8
0-01-a
6
CONTINUOUS
62
4
100
AcDbVertex
100
AcDb2dVertex
10
1358.267
20
816.608
30
0.0
42
1.000
0
SEQEND
5
561
100
AcDbEntity
  8
0-01-a
0
POLYLINE
5
562
100
AcDbEntity
  8
0-01-a
6
CONTINUOUS
62
4
100
AcDb2dPolyline
66
1
10
0
20
0
70
1
40
2.000
41
2.000
0
VERTEX
5
563
100
AcDbEntity
  8
0-01-a
6
CONTINUOUS
62
4
100
AcDbVertex
100
AcDb2dVertex
10
1922.267
20
816.608
30
0.0
42
1.000
0
VERTEX
5
564
100
AcDbEntity
  8
0-01-a
6
CONTINUOUS
62
4
100
AcDbVertex
100
AcDb2dVertex
10
1924.267
20
816.608
30
0.0
42
1.000
0
SEQEND
5
565
100
AcDbEntity
  8
0-01-a
0
LINE
5
566
100
AcDbEntity
8
0-01-a
6
CONTINUOUS
62
4
100
AcDbLine
10
1357.267044578265
20
816.607676216084
30
0.0
11
1357.267044578265
21
783.725559916201
31
0.0
0
LINE
5
567
100
AcDbEntity
8
0-01-a
6
CONTINUOUS
62
4
100
AcDbLine
10
1923.267044578265
20
816.607676216084
30
0.0
11
1923.267044578265
21
783.725559916201
31
0.0
0
LINE
5
568
100
AcDbEntity
8
0-01-a
6
CONTINUOUS
62
4
100
AcDbLine
10
1357.267044578265
20
968.831533693212
30
0.0
11
1357.267044578265
21
975.830455885816
31
0.0
0
LINE
5
569
100
AcDbEntity
8
0-01-a
6
CONTINUOUS
62
4
100
AcDbLine
10
1377.627717358265
20
989.192206473212
30
0.0
11
1370.628795165662
21
989.192206473212
31
0.0
0
LINE
5
56a
100
AcDbEntity
8
0-01-a
6
CONTINUOUS
62
4
100
AcDbLine
10
1357.267044578265
20
1009.552879253212
30
0.0
11
1357.267044578265
21
1002.553957060609
31
0.0
0
LINE
5
56b
100
AcDbEntity
8
0-01-a
6
CONTINUOUS
62
4
100
AcDbLine
10
1345.905293990869
20
989.192206473212
30
0.0
11
1368.628795165662
21
989.192206473212
31
0.0
0
LINE
5
56c
100
AcDbEntity
8
0-01-a
6
CONTINUOUS
62
4
100
AcDbLine
10
1357.267044578265
20
1000.553957060609
30
0.0
11
1357.267044578265
21
977.830455885816
31
0.0
0
LINE
5
56d
100
AcDbEntity
8
0-01-a
6
CONTINUOUS
62
4
100
AcDbLine
10
1368.405293990869
20
1064.192206473212
30
0.0
11
1391.128795165662
21
1064.192206473212
31
0.0
0
LINE
5
56e
100
AcDbEntity
8
0-01-a
6
CONTINUOUS
62
4
100
AcDbLine
10
1379.767044578266
20
1075.553957060609
30
0.0
11
1379.767044578266
21
1052.830455885816
31
0.0
0
LINE
5
56f
100
AcDbEntity
8
0-01-a
6
CONTINUOUS
62
4
100
AcDbLine
10
1400.127717358266
20
1064.192206473212
30
0.0
11
1393.128795165662
21
1064.192206473212
31
0.0
0
LINE
5
570
100
AcDbEntity
8
0-01-a
6
CONTINUOUS
62
4
100
AcDbLine
10
1379.767044578266
20
1043.831533693212
30
0.0
11
1379.767044578266
21
1050.830455885816
31
0.0
0
LINE
5
571
100
AcDbEntity
8
0-01-a
6
CONTINUOUS
62
4
100
AcDbLine
10
1889.405293990869
20
1064.192206473212
30
0.0
11
1912.128795165662
21
1064.192206473212
31
0.0
0
LINE
5
572
100
AcDbEntity
8
0-01-a
6
CONTINUOUS
62
4
100
AcDbLine
10
1880.406371798265
20
1064.192206473212
30
0.0
11
1887.405293990869
21
1064.192206473212
31
0.0
0
LINE
5
573
100
AcDbEntity
8
0-01-a
6
CONTINUOUS
62
4
100
AcDbLine
10
1900.767044578265
20
1075.553957060609
30
0.0
11
1900.767044578265
21
1052.830455885816
31
0.0
0
LINE
5
574
100
AcDbEntity
8
0-01-a
6
CONTINUOUS
62
4
100
AcDbLine
10
1921.127717358265
20
1064.192206473212
30
0.0
11
1914.128795165662
21
1064.192206473212
31
0.0
0
LINE
5
575
100
AcDbEntity
8
0-01-a
6
CONTINUOUS
62
4
100
AcDbLine
10
1900.767044578265
20
1043.831533693212
30
0.0
11
1900.767044578265
21
1050.830455885816
31
0.0
0
LINE
5
576
100
AcDbEntity
8
0-01-a
6
CONTINUOUS
62
4
100
AcDbLine
10
1911.905293990869
20
989.192206473212
30
0.0
11
1934.628795165662
21
989.192206473212
31
0.0
0
LINE
5
577
100
AcDbEntity
8
0-01-a
6
CONTINUOUS
62
4
100
AcDbLine
10
1902.906371798265
20
989.192206473212
30
0.0
11
1909.905293990869
21
989.192206473212
31
0.0
0
LINE
5
578
100
AcDbEntity
8
0-01-a
6
CONTINUOUS
62
4
100
AcDbLine
10
1923.267044578265
20
1000.553957060609
30
0.0
11
1923.267044578265
21
977.830455885816
31
0.0
0
LINE
5
579
100
AcDbEntity
8
0-01-a
6
CONTINUOUS
62
4
100
AcDbLine
10
1923.267044578265
20
1009.552879253212
30
0.0
11
1923.267044578265
21
1002.553957060609
31
0.0
0
LINE
5
57a
100
AcDbEntity
8
0-01-a
6
CONTINUOUS
62
4
100
AcDbLine
10
1943.627717358265
20
989.192206473212
30
0.0
11
1936.628795165662
21
989.192206473212
31
0.0
0
LINE
5
57b
100
AcDbEntity
8
0-01-a
6
CONTINUOUS
62
4
100
AcDbLine
10
1923.267044578265
20
968.831533693212
30
0.0
11
1923.267044578265
21
975.830455885816
31
0.0
0
LINE
5
57c
100
AcDbEntity
8
0-01-a
6
CONTINUOUS
62
4
100
AcDbLine
10
1911.905293990869
20
742.192206473212
30
0.0
11
1934.628795165662
21
742.192206473212
31
0.0
0
LINE
5
57d
100
AcDbEntity
8
0-01-a
6
CONTINUOUS
62
4
100
AcDbLine
10
1902.906371798265
20
742.192206473212
30
0.0
11
1909.905293990869
21
742.192206473212
31
0.0
0
LINE
5
57e
100
AcDbEntity
8
0-01-a
6
CONTINUOUS
62
4
100
AcDbLine
10
1923.267044578265
20
753.553957060609
30
0.0
11
1923.267044578265
21
730.830455885816
31
0.0
0
LINE
5
57f
100
AcDbEntity
8
0-01-a
6
CONTINUOUS
62
4
100
AcDbLine
10
1943.627717358265
20
742.192206473212
30
0.0
11
1936.628795165662
21
742.192206473212
31
0.0
0
LINE
5
580
100
AcDbEntity
8
0-01-a
6
CONTINUOUS
62
4
100
AcDbLine
10
1923.267044578265
20
721.831533693212
30
0.0
11
1923.267044578265
21
728.830455885816
31
0.0
0
LINE
5
581
100
AcDbEntity
8
0-01-a
6
CONTINUOUS
62
4
100
AcDbLine
10
1345.905293990869
20
742.192206473212
30
0.0
11
1368.628795165662
21
742.192206473212
31
0.0
0
LINE
5
582
100
AcDbEntity
8
0-01-a
6
CONTINUOUS
62
4
100
AcDbLine
10
1357.267044578265
20
753.553957060609
30
0.0
11
1357.267044578265
21
730.830455885816
31
0.0
0
LINE
5
583
100
AcDbEntity
8
0-01-a
6
CONTINUOUS
62
4
100
AcDbLine
10
1377.627717358265
20
742.192206473212
30
0.0
11
1370.628795165662
21
742.192206473212
31
0.0
0
LINE
5
584
100
AcDbEntity
8
0-01-a
6
CONTINUOUS
62
4
100
AcDbLine
10
1357.267044578265
20
721.831533693212
30
0.0
11
1357.267044578265
21
728.830455885816
31
0.0
0
LINE
5
585
100
AcDbEntity
8
0-01-a
6
CONTINUOUS
62
4
100
AcDbLine
10
1377.905293990869
20
450.192206473212
30
0.0
11
1400.628795165662
21
450.192206473212
31
0.0
0
LINE
5
586
100
AcDbEntity
8
0-01-a
6
CONTINUOUS
62
4
100
AcDbLine
10
1389.267044578265
20
461.553957060609
30
0.0
11
1389.267044578265
21
438.830455885816
31
0.0
0
LINE
5
587
100
AcDbEntity
8
0-01-a
6
CONTINUOUS
62
4
100
AcDbLine
10
1409.627717358265
20
450.192206473212
30
0.0
11
1402.628795165662
21
450.192206473212
31
0.0
0
LINE
5
588
100
AcDbEntity
8
0-01-a
6
CONTINUOUS
62
4
100
AcDbLine
10
1389.267044578265
20
429.831533693212
30
0.0
11
1389.267044578265
21
436.830455885816
31
0.0
0
LINE
5
589
100
AcDbEntity
8
0-01-a
6
CONTINUOUS
62
4
100
AcDbLine
10
1377.905293990869
20
441.692206473212
30
0.0
11
1400.628795165662
21
441.692206473212
31
0.0
0
LINE
5
58a
100
AcDbEntity
8
0-01-a
6
CONTINUOUS
62
4
100
AcDbLine
10
1389.267044578265
20
453.053957060609
30
0.0
11
1389.267044578265
21
430.330455885816
31
0.0
0
LINE
5
58b
100
AcDbEntity
8
0-01-a
6
CONTINUOUS
62
4
100
AcDbLine
10
1389.267044578265
20
462.052879253212
30
0.0
11
1389.267044578265
21
455.053957060609
31
0.0
0
LINE
5
58c
100
AcDbEntity
8
0-01-a
6
CONTINUOUS
62
4
100
AcDbLine
10
1409.627717358265
20
441.692206473212
30
0.0
11
1402.628795165662
21
441.692206473212
31
0.0
0
LINE
5
58d
100
AcDbEntity
8
0-01-a
6
CONTINUOUS
62
4
100
AcDbLine
10
1389.267044578265
20
421.331533693212
30
0.0
11
1389.267044578265
21
428.330455885816
31
0.0
0
LINE
5
58e
100
AcDbEntity
8
0-01-a
6
CONTINUOUS
62
4
100
AcDbLine
10
1879.905293990869
20
450.192206473212
30
0.0
11
1902.628795165662
21
450.192206473212
31
0.0
0
LINE
5
58f
100
AcDbEntity
8
0-01-a
6
CONTINUOUS
62
4
100
AcDbLine
10
1870.906371798265
20
450.192206473212
30
0.0
11
1877.905293990869
21
450.192206473212
31
0.0
0
LINE
5
590
100
AcDbEntity
8
0-01-a
6
CONTINUOUS
62
4
100
AcDbLine
10
1891.267044578266
20
461.553957060609
30
0.0
11
1891.267044578266
21
438.830455885816
31
0.0
0
LINE
5
591
100
AcDbEntity
8
0-01-a
6
CONTINUOUS
62
4
100
AcDbLine
10
1911.627717358265
20
450.192206473212
30
0.0
11
1904.628795165662
21
450.192206473212
31
0.0
0
LINE
5
592
100
AcDbEntity
8
0-01-a
6
CONTINUOUS
62
4
100
AcDbLine
10
1891.267044578266
20
429.831533693212
30
0.0
11
1891.267044578266
21
436.830455885816
31
0.0
0
LINE
5
593
100
AcDbEntity
8
0-01-a
6
CONTINUOUS
62
4
100
AcDbLine
10
1879.905293990869
20
441.692206473212
30
0.0
11
1902.628795165662
21
441.692206473212
31
0.0
0
LINE
5
594
100
AcDbEntity
8
0-01-a
6
CONTINUOUS
62
4
100
AcDbLine
10
1870.906371798265
20
441.692206473212
30
0.0
11
1877.905293990869
21
441.692206473212
31
0.0
0
LINE
5
595
100
AcDbEntity
8
0-01-a
6
CONTINUOUS
62
4
100
AcDbLine
10
1891.267044578266
20
453.053957060609
30
0.0
11
1891.267044578266
21
430.330455885816
31
0.0
0
LINE
5
596
100
AcDbEntity
8
0-01-a
6
CONTINUOUS
62
4
100
AcDbLine
10
1891.267044578266
20
462.052879253212
30
0.0
11
1891.267044578266
21
455.053957060609
31
0.0
0
LINE
5
597
100
AcDbEntity
8
0-01-a
6
CONTINUOUS
62
4
100
AcDbLine
10
1911.627717358265
20
441.692206473212
30
0.0
11
1904.628795165662
21
441.692206473212
31
0.0
0
LINE
5
598
100
AcDbEntity
8
0-01-a
6
CONTINUOUS
62
4
100
AcDbLine
10
1891.267044578266
20
421.331533693212
30
0.0
11
1891.267044578266
21
428.330455885816
31
0.0
0
LINE
5
599
100
AcDbEntity
8
0-01-a
6
CONTINUOUS
62
4
100
AcDbLine
10
1891.267044578266
20
520.789465112434
30
0.0
11
1891.267044578266
21
463.553957060609
31
0.0
0
LINE
5
59a
100
AcDbEntity
8
0-01-a
6
CONTINUOUS
62
4
100
AcDbLine
10
1389.267044578265
20
520.789465112434
30
0.0
11
1389.267044578265
21
463.553957060609
31
0.0
0
LINE
5
59b
100
AcDbEntity
8
0-01-a
6
CONTINUOUS
62
4
100
AcDbLine
10
1302.821470930828
20
450.192206473212
30
0.0
11
1375.905293990869
21
450.192206473212
31
0.0
0
POLYLINE
5
59c
100
AcDbEntity
8
0-01-a
6
CONTINUOUS
62
  4
100
AcDb2dPolyline
66
1
10
0.0
20
0.0
30
0.0
70
0
0
VERTEX
5
59d
100
AcDbEntity
8
0-01-a
6
CONTINUOUS
62
  4
100
AcDbVertex
100
AcDb2dVertex
10
1302.821470930828
20
450.192206473212
30
0.0
0
VERTEX
5
59e
100
AcDbEntity
8
0-01-a
6
CONTINUOUS
62
  4
100
AcDbVertex
100
AcDb2dVertex
10
1302.821470930828
20
441.692206473212
30
0.0
0
VERTEX
5
59f
100
AcDbEntity
8
0-01-a
6
CONTINUOUS
62
  4
100
AcDbVertex
100
AcDb2dVertex
10
1375.905293990869
20
441.692206473212
30
0.0
0
SEQEND
5
5a0
100
AcDbEntity
8
0-01-a
0
LINE
5
5a1
100
AcDbEntity
8
0-01-a
6
CONTINUOUS
62
4
100
AcDbLine
10
1302.821470930828
20
742.192206473212
30
0.0
11
1343.905293990869
21
742.192206473212
31
0.0
0
LINE
5
5a2
100
AcDbEntity
8
0-01-a
6
CONTINUOUS
62
4
100
AcDbLine
10
1302.821470930828
20
742.192206473212
30
0.0
11
1302.821470930828
21
450.192206473212
31
0.0
0
LINE
5
5a3
100
AcDbEntity
8
0-01-a
6
CONTINUOUS
62
4
100
AcDbLine
10
1357.267044578265
20
783.725559916201
30
0.0
11
1357.267044578265
21
755.553957060609
31
0.0
0
LINE
5
5a4
100
AcDbEntity
8
0-01-a
6
CONTINUOUS
62
4
100
AcDbLine
10
1640.267044578266
20
783.725559916201
30
0.0
11
1357.267044578265
21
783.725559916201
31
0.0
0
POLYLINE
5
5a5
100
AcDbEntity
8
0-01-a
6
CONTINUOUS
62
  4
100
AcDb2dPolyline
66
1
10
0.0
20
0.0
30
0.0
70
0
0
VERTEX
5
5a6
100
AcDbEntity
8
0-01-a
6
CONTINUOUS
62
  4
100
AcDbVertex
100
AcDb2dVertex
10
1640.267044578266
20
783.725559916201
30
0.0
0
VERTEX
5
5a7
100
AcDbEntity
8
0-01-a
6
CONTINUOUS
62
  4
100
AcDbVertex
100
AcDb2dVertex
10
1923.267044578265
20
783.725559916201
30
0.0
0
VERTEX
5
5a8
100
AcDbEntity
8
0-01-a
6
CONTINUOUS
62
  4
100
AcDbVertex
100
AcDb2dVertex
10
1923.267044578265
20
755.553957060609
30
0.0
0
SEQEND
5
5a9
100
AcDbEntity
8
0-01-a
0
LINE
5
5aa
100
AcDbEntity
8
0-01-a
6
CONTINUOUS
62
4
100
AcDbLine
10
1900.767044578265
20
1125.423644442667
30
0.0
11
1900.767044578265
21
1077.553957060609
31
0.0
0
LINE
5
5ab
100
AcDbEntity
8
0-01-a
6
CONTINUOUS
62
4
100
AcDbLine
10
1379.767044578266
20
1089.357460770883
30
0.0
11
1379.767044578266
21
1077.553957060609
31
0.0
0
LINE
5
5ac
100
AcDbEntity
8
0-01-a
6
CONTINUOUS
62
4
100
AcDbLine
10
1640.267044578266
20
1089.357460770883
30
0.0
11
1379.767044578266
21
1089.357460770883
31
0.0
0
LINE
5
5ad
100
AcDbEntity
8
0-01-a
6
CONTINUOUS
62
4
100
AcDbLine
10
1302.821470930828
20
1064.192206473212
30
0.0
11
1366.405293990869
21
1064.192206473212
31
0.0
0
LINE
5
5ae
100
AcDbEntity
8
0-01-a
6
CONTINUOUS
62
4
100
AcDbLine
10
374.416169510988
20
1003.831533693212
30
0.0
11
374.416169510988
21
1010.830455885816
31
0.0
0
LINE
5
5af
100
AcDbEntity
8
0-01-a
6
CONTINUOUS
62
4
100
AcDbLine
10
394.776842290988
20
1024.192206473212
30
0.0
11
387.777920098385
21
1024.192206473212
31
0.0
0
LINE
5
5b0
100
AcDbEntity
8
0-01-a
6
CONTINUOUS
62
4
100
AcDbLine
10
354.055496730988
20
1024.192206473212
30
0.0
11
361.054418923592
21
1024.192206473212
31
0.0
0
LINE
5
5b1
100
AcDbEntity
8
0-01-a
6
CONTINUOUS
62
4
100
AcDbLine
10
363.054418923592
20
1024.192206473212
30
0.0
11
385.777920098385
21
1024.192206473212
31
0.0
0
LINE
5
5b2
100
AcDbEntity
8
0-01-a
6
CONTINUOUS
62
4
100
AcDbLine
10
374.416169510988
20
1035.553957060609
30
0.0
11
374.416169510988
21
1012.830455885816
31
0.0
0
LINE
5
5b3
100
AcDbEntity
8
0-01-a
6
CONTINUOUS
62
4
100
AcDbLine
10
774.416169510988
20
1003.831533693212
30
0.0
11
774.416169510988
21
1010.830455885816
31
0.0
0
LINE
5
5b4
100
AcDbEntity
8
0-01-a
6
CONTINUOUS
62
4
100
AcDbLine
10
754.055496730988
20
1024.192206473212
30
0.0
11
761.054418923592
21
1024.192206473212
31
0.0
0
LINE
5
5b5
100
AcDbEntity
8
0-01-a
6
CONTINUOUS
62
4
100
AcDbLine
10
763.054418923592
20
1024.192206473212
30
0.0
11
785.777920098385
21
1024.192206473212
31
0.0
0
LINE
5
5b6
100
AcDbEntity
8
0-01-a
6
CONTINUOUS
62
4
100
AcDbLine
10
774.416169510988
20
1035.553957060609
30
0.0
11
774.416169510988
21
1012.830455885816
31
0.0
0
LINE
5
5b7
100
AcDbEntity
8
0-01-a
6
CONTINUOUS
62
4
100
AcDbLine
10
374.416169510988
20
1111.297753907975
30
0.0
11
374.416169510988
21
1037.553957060609
31
0.0
0
POLYLINE
5
5b8
100
AcDbEntity
8
0-01-a
6
CONTINUOUS
62
  4
100
AcDb2dPolyline
66
1
10
0.0
20
0.0
30
0.0
70
0
0
VERTEX
5
5b9
100
AcDbEntity
8
0-01-a
6
CONTINUOUS
62
  4
100
AcDbVertex
100
AcDb2dVertex
10
374.416169510988
20
1111.297753907975
30
0.0
0
VERTEX
5
5ba
100
AcDbEntity
8
0-01-a
6
CONTINUOUS
62
  4
100
AcDbVertex
100
AcDb2dVertex
10
774.416169510988
20
1111.297753907975
30
0.0
0
VERTEX
5
5bb
100
AcDbEntity
8
0-01-a
6
CONTINUOUS
62
  4
100
AcDbVertex
100
AcDb2dVertex
10
774.416169510988
20
1037.553957060609
30
0.0
0
SEQEND
5
5bc
100
AcDbEntity
8
0-01-a
0
LINE
5
5bd
100
AcDbEntity
8
0-01-a
6
CONTINUOUS
62
4
100
AcDbLine
10
922.649462758325
20
1024.192206473212
30
0.0
11
787.777920098385
21
1024.192206473212
31
0.0
0
LINE
5
5be
100
AcDbEntity
8
0-01-a
6
CONTINUOUS
62
4
100
AcDbLine
10
922.649462758325
20
1074.192206473212
30
0.0
11
922.649462758325
21
1024.192206473212
31
0.0
0
POLYLINE
5
5bf
100
AcDbEntity
8
0-01-a
6
CONTINUOUS
62
  4
100
AcDb2dPolyline
66
1
10
0.0
20
0.0
30
0.0
70
0
0
VERTEX
5
5c0
100
AcDbEntity
8
0-01-a
6
CONTINUOUS
62
  4
100
AcDbVertex
100
AcDb2dVertex
10
1302.821470930828
20
1064.192206473212
30
0.0
0
VERTEX
5
5c1
100
AcDbEntity
8
0-01-a
6
CONTINUOUS
62
  4
100
AcDbVertex
100
AcDb2dVertex
10
1302.821470930828
20
989.192206473212
30
0.0
0
VERTEX
5
5c2
100
AcDbEntity
8
0-01-a
6
CONTINUOUS
62
  4
100
AcDbVertex
100
AcDb2dVertex
10
1343.905293990869
20
989.192206473212
30
0.0
0
SEQEND
5
5c3
100
AcDbEntity
8
0-01-a
0
CIRCLE
5
5c4
100
AcDbEntity
8
0-01-a
6
CONTINUOUS
62
2
100
AcDbCircle
10
1440.267044578266
20
1024.192206473212
30
0.0
40
2.250000000000
0
CIRCLE
5
5c5
100
AcDbEntity
8
0-01-a
6
CONTINUOUS
62
2
100
AcDbCircle
10
1840.267044578265
20
1024.192206473212
30
0.0
40
2.250000000000
0
LINE
5
5c6
100
AcDbEntity
8
0-01-a
6
CONTINUOUS
62
4
100
AcDbLine
10
1440.267044578266
20
1003.831533693212
30
0.0
11
1440.267044578266
21
1010.830455885816
31
0.0
0
LINE
5
5c7
100
AcDbEntity
8
0-01-a
6
CONTINUOUS
62
4
100
AcDbLine
10
1460.627717358266
20
1024.192206473212
30
0.0
11
1453.628795165662
21
1024.192206473212
31
0.0
0
LINE
5
5c8
100
AcDbEntity
8
0-01-a
6
CONTINUOUS
62
4
100
AcDbLine
10
1419.906371798265
20
1024.192206473212
30
0.0
11
1426.905293990869
21
1024.192206473212
31
0.0
0
LINE
5
5c9
100
AcDbEntity
8
0-01-a
6
CONTINUOUS
62
4
100
AcDbLine
10
1428.905293990869
20
1024.192206473212
30
0.0
11
1451.628795165662
21
1024.192206473212
31
0.0
0
LINE
5
5ca
100
AcDbEntity
8
0-01-a
6
CONTINUOUS
62
4
100
AcDbLine
10
1440.267044578266
20
1035.553957060609
30
0.0
11
1440.267044578266
21
1012.830455885816
31
0.0
0
LINE
5
5cb
100
AcDbEntity
8
0-01-a
6
CONTINUOUS
62
4
100
AcDbLine
10
1840.267044578265
20
1003.831533693212
30
0.0
11
1840.267044578265
21
1010.830455885816
31
0.0
0
LINE
5
5cc
100
AcDbEntity
8
0-01-a
6
CONTINUOUS
62
4
100
AcDbLine
10
1819.906371798265
20
1024.192206473212
30
0.0
11
1826.905293990869
21
1024.192206473212
31
0.0
0
LINE
5
5cd
100
AcDbEntity
8
0-01-a
6
CONTINUOUS
62
4
100
AcDbLine
10
1828.905293990869
20
1024.192206473212
30
0.0
11
1851.628795165662
21
1024.192206473212
31
0.0
0
LINE
5
5ce
100
AcDbEntity
8
0-01-a
6
CONTINUOUS
62
4
100
AcDbLine
10
1840.267044578265
20
1035.553957060609
30
0.0
11
1840.267044578265
21
1012.830455885816
31
0.0
0
LINE
5
5cf
100
AcDbEntity
8
0-01-a
6
CONTINUOUS
62
4
100
AcDbLine
10
1440.267044578266
20
1044.552879253212
30
0.0
11
1440.267044578266
21
1037.553957060609
31
0.0
0
LINE
5
5d0
100
AcDbEntity
8
0-01-a
6
CONTINUOUS
62
4
100
AcDbLine
10
1840.267044578265
20
1044.552879253212
30
0.0
11
1840.267044578265
21
1037.553957060609
31
0.0
0
LINE
5
5d1
100
AcDbEntity
8
0-01-a
6
CONTINUOUS
62
7
100
AcDbLine
10
1460.851002062294
20
953.220255439453
30
0.0
11
1483.700933028946
21
953.220255439453
31
0.0
0
LINE
5
5d2
100
AcDbEntity
8
0-01-a
6
CONTINUOUS
62
7
100
AcDbLine
10
1442.720228922699
20
1020.885221976925
30
0.0
11
1460.851002062294
21
953.220255439453
31
0.0
0
LINE
5
5d3
100
AcDbEntity
8
0-01-a
6
CONTINUOUS
62
7
100
AcDbLine
10
1377.851002062294
20
671.220255439453
30
0.0
11
1400.700933028946
21
671.220255439453
31
0.0
0
LINE
5
5d4
100
AcDbEntity
8
0-01-a
6
CONTINUOUS
62
7
100
AcDbLine
10
1359.720228922699
20
738.885221976925
30
0.0
11
1377.851002062294
21
671.220255439453
31
0.0
0
MTEXT
5
5d5
100
AcDbEntity
8
0-01-a
62
7
100
AcDbMText
10
1492.079
20
944.420
30
0.0
40
15.895
41
0.000
71
7
72
1
1
\W1.093;裏面　{\W0.787;2-}φ{\W0.787;4.5 }穴加工
7
STANDARD
11
1.00000
21
0.00000
31
0.0
0
MTEXT
5
5d6
100
AcDbEntity
8
0-01-a
62
7
100
AcDbMText
10
1409.079
20
662.420
30
0.0
40
15.895
41
0.000
71
7
72
1
1
\W1.093;{\W0.787;6-}φ{\W0.787;3.0}
7
STANDARD
11
1.00000
21
0.00000
31
0.0
0
MTEXT
5
5d7
100
AcDbEntity
8
0-01-a
62
7
100
AcDbMText
10
1441.079
20
406.162
30
0.0
40
15.895
41
0.000
71
7
72
1
1
\W1.093;{\W0.787;4-}φ{\W0.787;3.0}
7
STANDARD
11
1.00000
21
0.00000
31
0.0
0
POLYLINE
5
5d8
100
AcDbEntity
8
0-01-a
6
CONTINUOUS
62
  7
100
AcDb2dPolyline
66
1
10
0.0
20
0.0
30
0.0
70
0
0
VERTEX
5
5d9
100
AcDbEntity
8
0-01-a
6
CONTINUOUS
62
  7
100
AcDbVertex
100
AcDb2dVertex
10
1391.720228922699
20
438.385221976925
30
0.0
0
VERTEX
5
5da
100
AcDbEntity
8
0-01-a
6
CONTINUOUS
62
  7
100
AcDbVertex
100
AcDb2dVertex
10
1397.996387082131
20
414.962280849588
30
0.0
0
VERTEX
5
5db
100
AcDbEntity
8
0-01-a
6
CONTINUOUS
62
  7
100
AcDbVertex
100
AcDb2dVertex
10
1432.700933028946
20
414.962280849588
30
0.0
0
SEQEND
5
5dc
100
AcDbEntity
8
0-01-a
0
MTEXT
5
5dd
100
AcDbEntity
8
0-01-a
62
7
100
AcDbMText
10
1441.079
20
380.844
30
0.0
40
15.895
41
0.000
71
7
72
1
1
\W1.093;深さ{\W0.787;10mm}
7
STANDARD
11
1.00000
21
0.00000
31
0.0
0
MTEXT
5
5de
100
AcDbEntity
8
0-01-a
62
7
100
AcDbMText
10
1409.079
20
637.102
30
0.0
40
15.895
41
0.000
71
7
72
1
1
\W1.093;深さ{\W0.787;10mm}
7
STANDARD
11
1.00000
21
0.00000
31
0.0
0
POLYLINE
5
5df
100
AcDbEntity
8
0-01-a
6
CONTINUOUS
62
  2
100
AcDb2dPolyline
66
1
10
0.0
20
0.0
30
0.0
70
0
0
VERTEX
5
5e0
100
AcDbEntity
8
0-01-a
6
CONTINUOUS
62
  2
100
AcDbVertex
100
AcDb2dVertex
10
1275.558873611919
20
845.841829019963
30
0.0
0
VERTEX
5
5e1
100
AcDbEntity
8
0-01-a
6
CONTINUOUS
62
  2
100
AcDbVertex
100
AcDb2dVertex
10
1275.558873611919
20
885.045985181773
30
0.0
0
VERTEX
5
5e2
100
AcDbEntity
8
0-01-a
6
CONTINUOUS
62
  2
100
AcDbVertex
100
AcDb2dVertex
10
1301.557419277119
20
885.045985181773
30
0.0
0
VERTEX
5
5e3
100
AcDbEntity
8
0-01-a
6
CONTINUOUS
62
  2
100
AcDbVertex
100
AcDb2dVertex
10
1301.557419277119
20
845.841829019963
30
0.0
0
VERTEX
5
5e4
100
AcDbEntity
8
0-01-a
6
CONTINUOUS
62
  2
100
AcDbVertex
100
AcDb2dVertex
10
1275.558873611919
20
845.841829019963
30
0.0
0
SEQEND
5
5e5
100
AcDbEntity
8
0-01-a
0
POLYLINE
5
5e6
100
AcDbEntity
8
0-01-a
6
CONTINUOUS
62
  2
100
AcDb2dPolyline
66
1
10
0.0
20
0.0
30
0.0
70
0
0
VERTEX
5
5e7
100
AcDbEntity
8
0-01-a
6
CONTINUOUS
62
  2
100
AcDbVertex
100
AcDb2dVertex
10
1275.558873611919
20
576.341829019963
30
0.0
0
VERTEX
5
5e8
100
AcDbEntity
8
0-01-a
6
CONTINUOUS
62
  2
100
AcDbVertex
100
AcDb2dVertex
10
1275.558873611919
20
615.545985181773
30
0.0
0
VERTEX
5
5e9
100
AcDbEntity
8
0-01-a
6
CONTINUOUS
62
  2
100
AcDbVertex
100
AcDb2dVertex
10
1301.557419277119
20
615.545985181773
30
0.0
0
VERTEX
5
5ea
100
AcDbEntity
8
0-01-a
6
CONTINUOUS
62
  2
100
AcDbVertex
100
AcDb2dVertex
10
1301.557419277119
20
576.341829019963
30
0.0
0
VERTEX
5
5eb
100
AcDbEntity
8
0-01-a
6
CONTINUOUS
62
  2
100
AcDbVertex
100
AcDb2dVertex
10
1275.558873611919
20
576.341829019963
30
0.0
0
SEQEND
5
5ec
100
AcDbEntity
8
0-01-a
0
LINE
5
5ed
100
AcDbEntity
8
0-01-a
6
CONTINUOUS
62
2
100
AcDbLine
10
1617.623057365231
20
842.449605035254
30
0.0
11
1660.174468965418
21
842.449605035254
31
0.0
0
LINE
5
5ee
100
AcDbEntity
8
0-01-a
6
CONTINUOUS
62
2
100
AcDbLine
10
1617.623057365231
20
818.239319124803
30
0.0
11
1617.623057365231
21
842.449605035254
31
0.0
0
POLYLINE
5
5ef
100
AcDbEntity
8
0-01-a
6
CONTINUOUS
62
  2
100
AcDb2dPolyline
66
1
10
0.0
20
0.0
30
0.0
70
0
0
VERTEX
5
5f0
100
AcDbEntity
8
0-01-a
6
CONTINUOUS
62
  2
100
AcDbVertex
100
AcDb2dVertex
10
1660.174468965418
20
842.449605035254
30
0.0
0
VERTEX
5
5f1
100
AcDbEntity
8
0-01-a
6
CONTINUOUS
62
  2
100
AcDbVertex
100
AcDb2dVertex
10
1660.174468965418
20
818.239319124803
30
0.0
0
VERTEX
5
5f2
100
AcDbEntity
8
0-01-a
6
CONTINUOUS
62
  2
100
AcDbVertex
100
AcDb2dVertex
10
1617.623057365231
20
818.239319124803
30
0.0
0
SEQEND
5
5f3
100
AcDbEntity
8
0-01-a
0
LINE
5
5f4
100
AcDbEntity
8
0-01-a
6
CONTINUOUS
62
2
100
AcDbLine
10
1617.623057365231
20
546.631393931604
30
0.0
11
1660.174468965418
21
546.631393931604
31
0.0
0
LINE
5
5f5
100
AcDbEntity
8
0-01-a
6
CONTINUOUS
62
2
100
AcDbLine
10
1617.623057365231
20
522.421108021153
30
0.0
11
1617.623057365231
21
546.631393931604
31
0.0
0
POLYLINE
5
5f6
100
AcDbEntity
8
0-01-a
6
CONTINUOUS
62
  2
100
AcDb2dPolyline
66
1
10
0.0
20
0.0
30
0.0
70
0
0
VERTEX
5
5f7
100
AcDbEntity
8
0-01-a
6
CONTINUOUS
62
  2
100
AcDbVertex
100
AcDb2dVertex
10
1660.174468965418
20
546.631393931604
30
0.0
0
VERTEX
5
5f8
100
AcDbEntity
8
0-01-a
6
CONTINUOUS
62
  2
100
AcDbVertex
100
AcDb2dVertex
10
1660.174468965418
20
522.421108021153
30
0.0
0
VERTEX
5
5f9
100
AcDbEntity
8
0-01-a
6
CONTINUOUS
62
  2
100
AcDbVertex
100
AcDb2dVertex
10
1617.623057365231
20
522.421108021153
30
0.0
0
SEQEND
5
5fa
100
AcDbEntity
8
0-01-a
0
MTEXT
5
5fb
100
AcDbEntity
8
F-0
62
7
100
AcDbMText
10
305.905
20
1378.229
30
0.0
40
21.856
41
0.000
71
5
72
1
1
\W0.972;幅{\W0.700;60cm}モデル・フルドア面材図面
7
STANDARD
11
1.00000
21
0.00000
31
0.0
0
ENDSEC
 0
SECTION
  2
OBJECTS
 0
DICTIONARY
  5
C
100
AcDbDictionary
  3
ACAD_GROUP
350
D
  3
ACAD_MLINESTYLE
350
E
 0
DICTIONARY
  5
D
100
AcDbDictionary
 0
DICTIONARY
  5
E
100
AcDbDictionary
  3
STANDARD
350
13
0
MLINESTYLE
  5
13
100
AcDbMlineStyle
  2
STANDARD
 70
    0
3

62
256
51
90.0
52
90.0
71
0
0
ENDSEC
0
EOF
